» » »

Walking Alone Simple Tabs (ver.1)

Artists:  A B C D E F G H I J K L M N O P Q R S T U V W X Y Z # 

Walking Alone Simple Tabs (ver.1)

Green Day
Rating:
0/5 (0 votes)

Hard to play? Try these video lessons and learn fast.
                Green day. 
Walking alone

Intro

E-----------------------------------------------------------------------------------------------------
B-----------------------------------------------------------------------------------------------------
G-5-5-5-5-5-5-5-5-5-2-2-2-2-2-2-2-2-2-5-5-5-5-5-5-5-5-5-2-2-2-2-2-2-2-2-2-----------
D-5-5-5-5-5-5-5-5-5-2-2-2-2-2-2-2-2-2-5-5-5-5-5-5-5-5-5-2-2-2-2-2-2-2-2-2-----------
A-0-0-0-0-0-0-0-0-0-0-0-0-0-0-0-0-0-0-0-0-0-0-0-0-0-0-0-0-0-0-0-0-0-0-0-0-----------
E-----------------------------------------------------------------------------------------------------


Verse

E------------------------------------------------------------------------------------------------------
B-----------------------------------------------------------------------------------------------------
G-5-5-5-5-5-5-5-5-2-2-2-2-2-2-2-2-5-5-5-5-5-5-5-5-7-7-7-7-7-7-7-7-7-7-7-7-7-7
D-5-5-5-5-5-5-5-5-2-2-2-2-2-2-2-2-5-5-5-5-5-5-5-5-7-7-7-7-7-7-7-7-7-7-7-7-7-7
A-0-0-0-0-0-0-0-0-0-0-0-0-0-0-0-0-0-0-0-0-0-0-0-0-0-0-0-0-0-0-0-0-0-0-0-0-0-0
E-----------------------------------------------------------------------------------------------------

Come together like a foot in a shoe, Only this time I think I stuck my foot in my mouth
Thinking out loud and acting in vain, Knocking over anyone that stands in my way
 

Chorus

E--------------------------------------------------------------------------------------------------
B-------------------------------------------------------------------------------------------------
G-5-5-5-5-5-5-7-7-7-7-7-7-7-5-5-5-5-5-5-5-5-5-5-7-7-7-7-7-7-7-7-7-7-7-7-7
D-5-5-5-5-5-5-7-7-7-7-7-7-7-5-5-5-5-5-5-5-5-5-5-7-7-7-7-7-7-7-7-7-7-7-7-7
A-0-0-0-0-0-0-0-0-0-0-0-0-0-0-0-0-0-0-0-0-0-0-0-0-0-0-0-0-0-0-0-0-0-0-0-0
E---------------------------------------------------------------------------------------------------

Sometimes I need to apologize, Sometimes I need to admit that I ain't right
sometimes I should just keep my mouth shut, |
						V
E---------------------------------------------------------------------------------------------------
B---------------------------------------------------------------------------------------------------
G---5—3—1-------5-5-5-5-5-5-5-5-5-7-7-7-7-7-7-7-7-7-7-7
D---5—3—1-------5-5-5-5-5-5-5-5-5-7-7-7-7-7-7-7-7-7-7-7
A-0-0-0-0-0-0-0-0-0-0-0-0-0-0-0-0-0-0-0-0-0-0-0-0-0-0-0-0-0-0-0-0-0-0-0-0
E-----------------------------------------------------------------------------------------------------

   Or only say hello, Sometimes I still feel I'm walking alone




E-----------------------------------------------------------------------------------------------------
B-----------------------------------------------------------------------------------------------------
G-5-5-5-5-5-5-5-5-5-2-2-2-2-2-2-2-2-2-5-5-5-5-5-5-5-5-5-2-2-2-2-2-2-2-2-2-----------
D-5-5-5-5-5-5-5-5-5-2-2-2-2-2-2-2-2-2-5-5-5-5-5-5-5-5-5-2-2-2-2-2-2-2-2-2-----------
A-0-0-0-0-0-0-0-0-0-0-0-0-0-0-0-0-0-0-0-0-0-0-0-0-0-0-0-0-0-0-0-0-0-0-0-0-----------
E-----------------------------------------------------------------------------------------------------

Verse

E------------------------------------------------------------------------------------------------------
B-----------------------------------------------------------------------------------------------------
G-5-5-5-5-5-5-5-5-2-2-2-2-2-2-2-2-5-5-5-5-5-5-5-5-7-7-7-7-7-7-7-7-7-7-7-7-7-7
D-5-5-5-5-5-5-5-5-2-2-2-2-2-2-2-2-5-5-5-5-5-5-5-5-7-7-7-7-7-7-7-7-7-7-7-7-7-7
A-0-0-0-0-0-0-0-0-0-0-0-0-0-0-0-0-0-0-0-0-0-0-0-0-0-0-0-0-0-0-0-0-0-0-0-0-0-0
E-----------------------------------------------------------------------------------------------------

Walk on eggshells on my old stomping ground, Yet there's really no one left, that's hanging around
Isn't that another familiar face?, Too drunk to figure out they're fading away


Chorus

E--------------------------------------------------------------------------------------------------
B-------------------------------------------------------------------------------------------------
G-5-5-5-5-5-5-7-7-7-7-7-7-7-5-5-5-5-5-5-5-5-5-5-7-7-7-7-7-7-7-7-7-7-7-7-7
D-5-5-5-5-5-5-7-7-7-7-7-7-7-5-5-5-5-5-5-5-5-5-5-7-7-7-7-7-7-7-7-7-7-7-7-7
A-0-0-0-0-0-0-0-0-0-0-0-0-0-0-0-0-0-0-0-0-0-0-0-0-0-0-0-0-0-0-0-0-0-0-0-0
E---------------------------------------------------------------------------------------------------

Sometimes I need to apologize, Sometimes I need to admit that I ain't right
sometimes I should just keep my mouth shut, |
						V
E---------------------------------------------------------------------------------------------------
B---------------------------------------------------------------------------------------------------
G---5—3—1-------5-5-5-5-5-5-5-5-5-7-7-7-7-7-7-7-7-7-7-7
D---5—3—1-------5-5-5-5-5-5-5-5-5-7-7-7-7-7-7-7-7-7-7-7
A-0-0-0-0-0-0-0-0-0-0-0-0-0-0-0-0-0-0-0-0-0-0-0-0-0-0-0-0-0-0-0-0-0-0-0-0
E-----------------------------------------------------------------------------------------------------

   Or only say hello, Sometimes I still feel I'm walking alone


E-----------------------------------------------------------------------------------------------------
B-----------------------------------------------------------------------------------------------------
G-5-5-5-5-5-5-5-5-5-2-2-2-2-2-2-2-2-2-5-5-5-5-5-5-5-5-5-2-2-2-2-2-2-2-2-2-----------
D-5-5-5-5-5-5-5-5-5-2-2-2-2-2-2-2-2-2-5-5-5-5-5-5-5-5-5-2-2-2-2-2-2-2-2-2-----------
A-0-0-0-0-0-0-0-0-0-0-0-0-0-0-0-0-0-0-0-0-0-0-0-0-0-0-0-0-0-0-0-0-0-0-0-0-----------
E-----------------------------------------------------------------------------------------------------

Solo
E----------------------------------------------------------------------------------------------------
B----------------------------------------------------------------------------------------------------
G----------------------------------------------------------------------------------------------------
D----------------------------------------------------------------------------------------------------
A-3--4--4--5b---3-4-5-6-3-4-5-6-7-8-7-6----3--4--4--5b---3-4-5-6-3-4-5-6-7-8-7-6---
E----------------------------------------------------------------------------------------------------

Chorus

E--------------------------------------------------------------------------------------------------
B-------------------------------------------------------------------------------------------------
G-5-5-5-5-5-5-7-7-7-7-7-7-7-5-5-5-5-5-5-5-5-5-5-7-7-7-7-7-7-7-7-7-7-7-7-7
D-5-5-5-5-5-5-7-7-7-7-7-7-7-5-5-5-5-5-5-5-5-5-5-7-7-7-7-7-7-7-7-7-7-7-7-7
A-0-0-0-0-0-0-0-0-0-0-0-0-0-0-0-0-0-0-0-0-0-0-0-0-0-0-0-0-0-0-0-0-0-0-0-0
E---------------------------------------------------------------------------------------------------

Sometimes I need to apologize, Sometimes I need to admit that I ain't right
sometimes I should just keep my mouth shut, |
						V
E---------------------------------------------------------------------------------------------------
B---------------------------------------------------------------------------------------------------
G---5—3—1-------5-5-5-5-5-5-5-5-5-7-7-7-7-7-7-7-7-7-7-7
D---5—3—1-------5-5-5-5-5-5-5-5-5-7-7-7-7-7-7-7-7-7-7-7
A-0-0-0-0-0-0-0-0-0-0-0-0-0-0-0-0-0-0-0-0-0-0-0-0-0-0-0-0-0-0-0-0-0-0-0-0
E-----------------------------------------------------------------------------------------------------

   Or only say hello, Sometimes I still feel I'm walking alone

Outro

E-----------------------------------------------------------------------------------------------------
B-----------------------------------------------------------------------------------------------------
G-5-5-5-5-5-5-5-5-5-2-2-2-2-2-2-2-2-2-5-5-5-5-5-5-5-5-5-2-2-2-2-2-2-2-2-2-----------
D-5-5-5-5-5-5-5-5-5-2-2-2-2-2-2-2-2-2-5-5-5-5-5-5-5-5-5-2-2-2-2-2-2-2-2-2-----------
A-0-0-0-0-0-0-0-0-0-0-0-0-0-0-0-0-0-0-0-0-0-0-0-0-0-0-0-0-0-0-0-0-0-0-0-0-----------
E-----------------------------------------------------------------------------------------------------
            
Hard to play? Try these video lessons and learn fast. | Correct




comments powered by Disqus
↑ Back to top | Tablatures and chords are parodies/interpretations of the original songs. You may use it for private study, scholarship, research or language learning purposes only