» » »

Green Day, Jar Bass tabs (ver.2)

Artists:  A B C D E F G H I J K L M N O P Q R S T U V W X Y Z # 

Jar Bass tabs (ver.2)

Green Day Tabs
 Rating:
4/5 (4 votes)
Jar lessons Tabs too difficult? Try these video lessons and learn fast
1
                "Intro
 G:----7-----7-----7-----7------7------7-------7---I----------I
 D:-55--5--00--0-------00--0---55--5--00--0--------I---5------I
 A:--------------00--0-----------------------00--0-I------5---I
 E:------------------------------------------------I----------I
                                                   (x2)
 G:----------------------------------------------------I
 D:-------------------4-5-7-5------------5-5-5---------I
 A:-3-3-3-3-3-3-5-5------------5-3-3-3-3--------5-5-5--I
 E:----------------------------------------------------I
       
          Verse
 G:---------------------------------------------------I
 D:--------------------------------------5-5-5--------I
 A:-3-3-3-3-3-3-5-5-5-5-5-5-5-5-3-3-3-3---------5-5-5-I
 E:---------------------------------------------------I

 G:-------------------------------------------------------I
 D:-------------------4-5-7-5----------------5-5-5--------I
 A:-3-3-3-3-3-3-5-5------------5-3-3-3-3-3----------5-5-5-I
 E:-------------------------------------------------------I

     Chorus
 G:---------------------5---------------------5-------------------------------I
 D:-5-5-5-5-5-5-5-5-5-5---3-3-3-3-3-3-3-3-3-3-------------------------4-5-5-5-I
 A:---------------------------------------------5-5-5-5-5-5-5-3-3-4-5---------I
 E:---------------------------------------------------------------------------I
   
 G:-------------------I
 D:-------------------I
 A:-5-5-5-5-5-5-5-5-5-I
 E:-------------------I

   For Chorus 1
 G: 
 D: > Just play the intro
 A:
 E:
     
         Bridge                    (x3)
 G:------ -------------------------I---------------------I------I
 D:-5-5-5-5-5-5-5-5----------------I-5-5-5-5-5-5-5-5-5-5-I--5---I
 A:----------------5-5-5-5-5-5-5-5-I---------------------I---5--I
 E:--------------------------------I---------------------I------I
                                                                     (x4)
 G:------------------------------------------------------I
 D:------------------4-5-7-5----------------5-5-5--------I
 A:-3-3-3-3-3-3-5-5------------5-3-3-3-3-3---------5-5-5-I
 E:------------------------------------------------------I
 
       Outro=Intro x3
"            
Submit corrections

comments powered by Disqus
↑ Back to top | Green Day Bass for Jar. Lyrics for acoustic guitar and electric guitar. 1 Tablatures and chords are parodies/interpretations of the original songs. You may use it for private study, scholarship, research or language learning purposes only