» » »

Green Day, Jar Bass tabs (ver.3)

Artists:  A B C D E F G H I J K L M N O P Q R S T U V W X Y Z # 

Jar Bass tabs (ver.3)

Green Day Tabs
 Rating:
4/5 (4 votes)
Jar lessons Tabs too difficult? Try these video lessons and learn fast
                "Intro
Gb-----7------7------7------7--------7------7------7-------
Db--55---5-00---0--------00---0---55---5-00---0------------
Ab----------------00---0------------------------00---0--5--
Eb--------------------------------------------------------5

Gb-----------------------------------------
Db-------5-------4-5-4-----------5---------
Ab-----------5-7-------7-5---------5-5----- X2
Eb-3-3-3---5---------------3-3-3-------5-5-

Verse
Gb----------------------------------------------
Db----------------------------------------------
Ab---------------------------------------5-5----
Eb-3-3-3-3-3--5-5-5-5-5-5-5-5--3-3-3-3-3-----5-5

Gb-----------------------------------------
Db-------5-------4-5-4-----------5---------
Ab-----------5-7-------7-5---------5-5-----
Eb-3-3-3---5---------------3-3-3-------5-5-

Chorus
Gb--------------------------------------------------------------------
Db-5-5-5-5-5-5-5-5-5-5-5-5--------------------------------------------
Ab-------------------------5-5-5-5-5-5-5-5-5-5-5-5--------------------
Eb--------------------------------------------------5-5-5-5—5-5-5-5-5-

Gb-----------------------------------------------------
Db-------5---------------------------------------------
Ab---------5-5-5-5-5-5-5-5-5-5-5-----------------------
Eb-3-3-3-------------------------5-5-5-5-5-5-5-5—5-5-5-

Riff
Gb-----7------7------7---
Db--55---5-00---0--------
Ab----------------00---0-
Eb-----------------------

Bridge
Gb----------------------------------------------------------------
Db----------------------------------------------------------------
Ab-3-3-3-3-3-3-3-3-----------------5-5-5-5-5-5-5-5----------------
Eb-----------------3-3-3-3-3-3-3-3-----------------5-5-5-5-5-5-5-5

Gb------------------------------------------------------
Db------------------------------------------------------
Ab-3-3-3-3-3-3-3-3-----------------5-5-5-5-5-5-5-5--5---
Eb-----------------3-3-3-3-3-3-3-3--------------------5-

Gb-----------------------------------------
Db-------5-------4-5-4-----------5---------
Ab-----------5-7-------7-5---------5-5----- X4
Eb-3-3-3---5-5-------------3-3-3-------5-5-

Outro				X3
Gb-----7------7------7------7---|-----7------7------7-------
Db--55---5-00---0--------00---0-|--55---5-00---0------------
Ab----------------00---0--------|----------------00---0--5*-
Eb------------------------------|---------------------------

Order:
Intro
Verse X2
Chorus
Intro
Verse X2
Chorus
Riff X4
Bridge
Chorus
Riff X4
Outro
"            
Submit corrections

comments powered by Disqus
↑ Back to top | Green Day Bass for Jar. Lyrics for acoustic guitar and electric guitar. Tablatures and chords are parodies/interpretations of the original songs. You may use it for private study, scholarship, research or language learning purposes only