» » »

Jar Bass tabs (ver.1)

Artists:  A B C D E F G H I J K L M N O P Q R S T U V W X Y Z # 

Jar Bass tabs (ver.1)

Green Day
Rating:
0/5 (0 votes)

Hard to play? Try these video lessons and learn fast.
                "Intro

G:|------------------------------------|-----|
D:|---7----7----7----7----7----7----7--|-----|
A:|-55-5-00-0------00-0-55-5-00-0------|-5---|
E:|-----------00-0----------------00-0-|---5-|
						      (x2)
G:|---------------------------------------------------|
D:|-------------------0-3-0---------------------------|
A:|-----------------4-------4-3-----------5-5-5-------|
E:|-3-3-3-3-3-3-5-5-------------3-3-3-3-3-------5-5-5-|

Verse

G:|---------------------------------------------------|
D:|---------------------------------------------------|
A:|---------------------------------------5-5-5-------|
E:|-3-3-3-3-3-3-5-5-5-5-5-5-5-5-3-3-3-3-3-------5-5-5-|

G:|---------------------------------------------------|
D:|-------------------0-3-0---------------------------|
A:|-----------------4-------4-3-----------5-5-5-------|
E:|-3-3-3-3-3-3-5-5-------------3-3-3-3-3-------5-5-5-|

Chorus

G:|-----------------------------------------------------------------------------------------|
D:|---------------------5---------------------5---------------------------------------------|
A:|-5-5-5-5-5-5-5-5-5-5---3-3-3-3-3-3-3-3-3-3-------------------------------4-5-5-5-5-5-5-5-|
E:|---------------------------------------------5-5-5-5-5-5-5-5-5-5-3-3-4-5-----------------|

G:|-------------------|
D:|-------------------|
A:|-------------------|
E:|-5-5-5-5-5-5-5-5-5-|

This is for Chorus 1

G:|------------------------------------|-----|
D:|---7----7----7----7-----7----7---7--|-----|
A:|-55-5-00-0------00-0-55-5-00-0------|-5---|
E:|-----------00-0----------------00-0-|---5-|

This is for Chorus 2 and 3
		    (x4)
G:|---------------------|
D:|---7----7----7----7--|
A:|-55-5-00-0------00-0-|
E:|-----------00-0------|

Bridge
				(x3)
G:|---------------------------------|---------------------|-----|
D:|---------------------------------|---------------------|-----|
A:|-5-5-5-5-5-5-5-5-----------------|-5-5-5-5-5-5-5-5-5-5-|-5---|
E:|-----------------5-5-5-5-5-5-5-5-|---------------------|---5-|
						  (x4)
G:|---------------------------------------------------|
D:|-------------------0-3-0---------------------------|
A:|-----------------4-------4-3-----------5-5-5-------|
E:|-3-3-3-3-3-3-5-5-------------3-3-3-3-3-------5-5-5-|

Outro
		    (x3)
G:|---------------------|------------------|
D:|---7----7----7----7--|---7----7----7----|
A:|-55-5-00-0------00-0-|-55-5-00-0------5-|
E:|-----------00-0------|-----------00-0---|


Order
Intro   x1
Verse   x2
Chorus  x1
Verse   x2
Chorus  x1
Bridge  x1
Chorus  x1
Outro   x1

Thanks
Joel
"            
Hard to play? Try these video lessons and learn fast. | Correct




comments powered by Disqus
↑ Back to top | Tablatures and chords are parodies/interpretations of the original songs. You may use it for private study, scholarship, research or language learning purposes only