» » »

Green Day, Hold On Tabs (ver.3)

Artists:  A B C D E F G H I J K L M N O P Q R S T U V W X Y Z # 

Hold On Tabs (ver.3)

Green Day Tabs
 Rating:
4/5 (4 votes)
Hold On lessons Tabs too difficult? Try these video lessons and learn fast
                Released: 2000 reprise records
Track: 8

x - scratch


intro

|--------------------------------------------------------|
|--------------------------------------------------------|
|-4-4-4-5-5-5-4-4-4-5-5-5-4-4-4-5-5-5--x-7-7-7-7-7-7-7-7-|
|-5-5-5-5-5-5-5-5-5-5-5-5-5-5-5-5-5-5--x-7-7-7-7-7-7-7-7-|
|-5-5-5-3-3-3-5-5-5-3-3-3-5-5-5-3-3-3--x-5-5-5-5-5-5-5-5-|
|-3-3-3-------3-3-3-------3-3-3--------------------------|

verse/bridge

|-------------------------------------------------------------------------
|-------------------------------------------------------------------------
|-4-4-4-5-5-5-4-4-4-7-7-7-4-4-4-5-5-5-4-4-4-7-7-7-4-4-4-5-5-5-4-4-4-7-7-7-
|-5-5-5-5-5-5-5-5-5-7-7-7-5-5-5-5-5-5-5-5-5-7-7-7-5-5-5-5-5-5-5-5-5-7-7-7-
|-5-5-5-3-3-3-5-5-5-5-5-5-5-5-5-3-3-3-5-5-5-5-5-5-5-5-5-3-3-3-5-5-5-5-5-5-
|-3-3-3-------3-3-3-------3-3-3-------3-3-3-------3-3-3-------3-3-3-------

 -----------------------------|
 -----------------------------|
 -5-5-5-7-7-7-4-4-4-4-4-4-4-4-|
 -5-5-5-7-7-7-5-5-5-5-5-5-5-5-|
 -3-3-3-5-5-5-5-5-5-5-5-5-5-5-|
 -------------3-3-3-3-3-3-3-3-|

chorus

|----------------------------------------------------------------------------
|----------------------------------------------------------------------------
|-----------------4-4-4-4-4-4-4-4--x-7-7-7-7-7-7-4-4-4-4-4-4-----------------
|-2-2-2-2-2-2-2-2-5-5-5-5-5-5-5-5--x-7-7-7-7-7-7-5-5-5-5-5-5-2-2-2-2-2-2-2-2-
|-2-2-2-2-2-2-2-2-5-5-5-5-5-5-5-5--x-5-5-5-5-5-5-5-5-5-5-5-5-2-2-2-2-2-2-2-2-
|-0-0-0-0-0-0-0-0-3-3-3-3-3-3-3-3----------------3-3-3-3-3-3-0-0-0-0-0-0-0-0-

 ---------------------------------------------|
 ---------------------------------------------|
 -4-4-4-4-4-4-4-4-5-5-5-5-5-5-5-5-7-7-7-7-7-7-|
 -5-5-5-5-5-5-5-5-5-5-5-5-5-5-5-5-7-7-7-7-7-7-|
 -5-5-5-5-5-5-5-5-3-3-3-3-3-3-3-3-5-5-5-5-5-5-|
 -3-3-3-3-3-3-3-3-----------------------------|

lyrics

as i stepped to the edge beyond the shadow of a doubt
with my conscience beating
like the pulse of a drum that hammers on and on
until i reach the break of day
as the sun beats down on the halfway house
has my conscience beating the sound in my ear
the will to persevere as i reach the break of day
when you lost all hope and excuses
and the cheapskates and the losers
nothing's left to cling onto
you got to hold on to yourself
a cry of hope a plea for peace
and my conscience beating
it's not what i want for it's all that i need
to reach the break of day
so i run to the edge beyond the shadow of a doubt
with my conscience bleeding
here lies the truth the lost treasures of my youth
as i hold on to the break of day
when you lost all hope and excuses
and the cheapskates and the losers
nothing's left to cling onto
you got to hold on to yourself
            
Submit corrections

comments powered by Disqus
↑ Back to top | Green Day Tabs for Hold On. Lyrics for acoustic guitar and electric guitar. Tablatures and chords are parodies/interpretations of the original songs. You may use it for private study, scholarship, research or language learning purposes only