» » »

Green Day, Hold On Tabs (ver.2)

Artists:  A B C D E F G H I J K L M N O P Q R S T U V W X Y Z # 

Hold On Tabs (ver.2)

Green Day Tabs
 Rating:
4/5 (4 votes)
Hold On lessons Tabs too difficult? Try these video lessons and learn fast
                green day
hold on
Intro
e|--3--0------------------------------------------------------------------------|
B|--3--1------------------------------------------------------------------------|
G|--0--0------------------------------------------------------------------------|
D|--0--2------------------------------------------------------------------------|
A|--2--3------------------------------------------------------------------------|
E|--3--0------------------------------------------------------------------------|

    As I step to the edge...
e|-3--0--3--2-------------------------------------------------------------------|
B|-3--1--3--3-------------------------------------------------------------------|
G|-0--0--0--2-------------------------------------------------------------------|
D|-0--2--0--0-------------------------------------------------------------------|
A|-2--3--2--0-------------------------------------------------------------------|
E|-3--0--3----------------------------------------------------------------------|

    When you lost the hope...
e|--0--3--2--3--0--3--0--3------------------------------------------------------|
B|--0--3--3--3--0--3--1--3------------------------------------------------------|
G|--0--0--2--0--0--0--0--0------------------------------------------------------|
D|--2--0--0--0--2--0--2--0------------------------------------------------------|
A|--2--2--0--2--2--2--3--2------------------------------------------------------|
E|--0--3-----3--0--3--0--3------------------------------------------------------|

    A cry of help....
e|-3--0--3--2-------------------------------------------------------------------|
B|-3--1--3--3-------------------------------------------------------------------|
G|-0--0--0--2-------------------------------------------------------------------|
D|-0--2--0--0-------------------------------------------------------------------|
A|-2--3--2--0-------------------------------------------------------------------|
E|-3--0--3----------------------------------------------------------------------|

    When you lost the hope...
e|--0--3--2--3--0--3--0--3------------------------------------------------------|
B|--0--3--3--3--0--3--1--3------------------------------------------------------|
G|--0--0--2--0--0--0--0--0------------------------------------------------------|
D|--2--0--0--0--2--0--2--0------------------------------------------------------|
A|--2--2--0--2--2--2--3--2------------------------------------------------------|
E|--0--3-----3--0--3--0--3------------------------------------------------------|

e|-3--0--3--2--------------------------------------------------------------|
B|-3--1--3--3--------------------------------------------------------------|
G|-0--0--0--2--------------------------------------------------------------|
D|-0--2--0--0--------------------------------------------------------------|
A|-2--3--2--0--------------------------------------------------------------|
E|-3--0--3-----------------------------------------------------------------|

Solo
e|-------------------------------------------------------------------------|
B|----------------------------------------10-11--12------------------------|
G|------------------7------------------------------------------------------|
D|-7-7-7-9---7-7-7-----7-7-7-9---7-7-7-------------------------------------|
A|-------------------------------------------------------------------------|
E|-------------------------------------------------------------------------|

e|-------------------------------------------------------------------------|
B|----------10-------------10-------------10-----------------10------------|
G|-12---12--------12--12--------12-12-12-------12-11-12--12------12-11-12--|
D|-------------------------------------------------------------------------|
A|-------------------------------------------------------------------------|
E|-------------------------------------------------------------------------|

play solo 2 times some notes are played more than once

    When you lost the hope...
e|--0--3--2--3--0--3--0--3-------------------------------------------------|
B|--0--3--3--3--0--3--1--3-------------------------------------------------|
G|--0--0--2--0--0--0--0--0-------------------------------------------------|
D|--2--0--0--0--2--0--2--0-------------------------------------------------|
A|--2--2--0--2--2--2--3--2-------------------------------------------------|
E|--0--3-----3--0--3--0--3-------------------------------------------------|

Outro
e|--3--0------------------------------------------------------------------------|
B|--3--1------------------------------------------------------------------------|
G|--0--0------------------------------------------------------------------------|
D|--0--2------------------------------------------------------------------------|
A|--2--3------------------------------------------------------------------------|
E|--3--0------------------------------------------------------------------------|
            
Submit corrections

comments powered by Disqus
↑ Back to top | Green Day Tabs for Hold On. Lyrics for acoustic guitar and electric guitar. Tablatures and chords are parodies/interpretations of the original songs. You may use it for private study, scholarship, research or language learning purposes only