>
 >
Hold On

Hold On Guitar Tabs

Green Day - Hold On chords, tabs, tablatures, lyrics

Guitar lessons | Add/correct | Request | Top 50 tabs Artists:  A B C D E F G H I J K L M N O P Q R S T U V W X Y Z 0-9

Hold On Guitar Tabs – Green Day

CD, Sheet music, Poster

Do you like Hold On? Share with your friends now
ChordsTabsTabs v2Tabs v3
I haven't seen any tabs with a good version of the solo, 
so I sat down and did it myself. 
Please rate this tab!!! Thanks - Lauren

CHORDS USED:

G- (3X003X)
C- (X3201X)
D- (XX0232)
Em-(022000)

INTRO

G C G C G C D

VERSE

     G	    C	  G           D
As I step to the edge of a shadow of a doubt... repeat 3x

     C	  D         G
As I reach the break of day

CHORUS
	     Em	 G
When you lost all hope and excuses

        D		   G
And the cheapskates and the losers

          Em	           G
Nothing's left to cling on to

	 C    D
You've got to hold on

No chords
Hold on to yourself

GUITAR RIFF

E----------------------------------------------------------
B-0-0-0--1-1-1--0-0-0--3-3-3--0-0-0--1-1-1--0-0-0--7-8-10--
G-0-0-0--0-0-0--0-0-0--2-2-2--0-0-0--0-0-0--0-0-0--7-7--7--
D----------------------------------------------------------
A----------------------------------------------------------
E----------------------------------------------------------

E----------------------------------------------------------
B-8-8-8--8-8-8--8-8-8--10-10-10--8-8-8--10-10-10---8--8----
G-7-7-7--9-9-9--7-7-7---7--7--7--7-7-7---7--7-7--7--7-----
D----------------------------------------------------------
A----------------------------------------------------------
E----------------------------------------------------------

After playing the solo once through, play this part as the
beginning

E---------------------------------------------------------
B-0-0-0--1-1-1--0-0-0--3-3-3--0-0-0--1-1-1--0-0-0--10-8-7-
G-0-0-0--0-0-0--0-0-0--2-2-2--0-0-0--0-0-0--0-0-0---7-7-7-
D---------------------------------------------------------
A---------------------------------------------------------
E---------------------------------------------------------


LYRICS:

As I step to the edge of a shadow of a doubt
With my conscience beating
Like the pulse of a drum that hammers on and on
As I reach the break of day
As the sun beats down on the halfway house
Has my conscience beaten
The sound in my ear
The will to persevere
As I hold to the break of day

When you lost all hope and excuses
And the cheapskates and the losers
Nothing's left to cling on to
You got to hold on
Hold on to yourself

A cry of hope
A plea for peace
And my conscience beating
It's not what I want for it's all that I need
To reach the break of day
So I run to the edge of a shadow of a doubt
With my conscience bleeding
Here lies the truth
The lost treasures of my youth
As I hold to the break of day

End on G





Comments


Popular Green Day tabs & chords
Geek Stink Breath Bass Tabs
I Was There  2 Bass Tabs
Brat Chords
Deadbeat Holiday 1 Tabs
Espionage 4 Tabs
Give Me Novacaine Tabs
I Want To Be On T.V 1 Tabs
Jaded 1 Tabs
Metal Jam Tabs
Minority 2 Tabs


Song lyrics



↑ Back to top | Tablatures and chords are parodies/interpretations of the original songs. You may use it for private study, scholarship, research or language learning purposes only
© 2014 AZChords.com Contact us | Privacy policy | DMCA | Add/correct tabs | Request tabs | Top 50 tabs