» » »

Green Day, Coming Clean Bass tabs (ver.3)

Artists:  A B C D E F G H I J K L M N O P Q R S T U V W X Y Z # 

Coming Clean Bass tabs (ver.3)

Green Day Tabs
 Rating:
4/5 (4 votes)
Coming Clean lessons Tabs too difficult? Try these video lessons and learn fast
                Coming Clean

Hello Kids since there are only cr*ppy tabs out for this one I tabbed it myself.
You might wanna leave out the octaves if you want since Mike doesnt play them all but 
they sound pretty sweet.
Hope you enjoy.


Intro	0:01
G |------------------------------------------------------|
D |------------------------------------------------------|
A |------------------------------------------------------|
E |-6~-------------------3~------------------------------|

Verse1 0:06
G |-------------------------------------------0----------------------|
D |----------------------------555--5--------3--3-3-3-135------------|
A |---------------8-6-5----------------------------------------------|
E |-6--66-6--6-66-------3-33-3----3---3--1-1-------------------------|

0:12
G |--------------------0----------------------------------------|
D |-------------------3----3-33-3-1-3-5-------------------------|
A |-6-66-65656-8------------------------6-66-656568-------------|
E |---------------1-1-------------------------------------------|

0:23
G |---------------------------------------------------------|
D |---66---666-----------5----------------------------------|
A |-------------8-6-5-------------5-6-8---------------------|
E |-6----6------------3-3--3-3-33---------------------------|

0:28
G |-------------------------------------------0-----------------|
D |---66---6-66---------------555--5---------3--3-3-3-135-------|
A |-------------8-6-5-------------------------------------------|
E |-6----6--------------3-33-3----3---3--1-1--------------------|

0:38
G |--------------------0----------------------------------------|
D |-------------------3--3-33-3-1-3-5---------------------------|
A |-6-66-65656-8------------------------6-66-656568-------------|
E |---------------1-1-------------------------------------------|

0:45
G |-------------------------------------------------------------|
D |--------------------------5----------------------------------|
A |-------------8-6-5----------------5-6-8----------------------|
E |-6-66-6-666-----------3-3--3-3-33----------------------------|

0:51
G |-------------------------------------0---------------------|
D |----6-------------------5-555-------3--333-135-------------|
A |--------------8-6-5----------------------------------------|
E |-6-6---6-6-66--------33--3----3--11------------------------|

0:59
G |--------------------0----------------------------------------|
D |-------------------3--3-33-3-1-3-5---------------------------|
A |-6-66-65656-8------------------------6-66-656568-------------|
E |---------------1-1-------------------------------------------|






1:07

G |-------------------------------------------------------------|
D |--------------------------5----------------------------------|
A |-------------8-6-5----------------5-6-8----------------------|
E |-6-66-6-666-----------3-3--3-3-33----------------------------|

1:12

G |-------------------------------------0---------------------|
D |----6-------------------5-555-------3--333-135-------------|
A |--------------8-6-5----------------------------------------|
E |-6-6---6-6-66--------33--3----3--11------------------------|

1:22

G |--------------------0----------------------------------------|
D |-------------------3--3-33-3-1-3-5---------------------------|
A |-6-66-65656-8------------------------6-66-656568-------------|
E |---------------1-1-------------------------------------------|
            
Submit corrections

comments powered by Disqus
↑ Back to top | Green Day Bass for Coming Clean. Lyrics for acoustic guitar and electric guitar. Tablatures and chords are parodies/interpretations of the original songs. You may use it for private study, scholarship, research or language learning purposes only