» » »

Green Day, Coming Clean Bass tabs (ver.2)

Artists:  A B C D E F G H I J K L M N O P Q R S T U V W X Y Z # 

Coming Clean Bass tabs (ver.2)

Green Day Tabs
Rating:
0/5 (0 votes)
Hard to play? Try these video lessons and learn fast.
                                      Coming Clean                        
                                                 Green Day
Bass

     W                   W                 
G||-------------------|-------------------|
D||-------------------|-------------------|
A||-------------------|-------------------|
E||--6----------------|--L----------------|


  W                   W                 
-------------------|-------------------|
-------------------|-------------------|
-------------------|-------------------|
--3----------------|--L----------------|


  Q    E  E  Q    E  E     E  E  E  E  E  E  E  E   
------------------------|--------------------------|
------------------------|--------------6--4--3-----|
------------------------|--------5--6-----------4--|
--6-------6--6-------6--|-----6--------------------|


  Q    E  E  Q    E  E     E  Q    E  Q    Q     
------------------------|-----------------------|
------------------------|-----------------------|
------------------------|-----6-------6---------|
--3-------3--3-------3--|--L-------3-------3----|


    Q    E  E  Q    E  E     E  E  E  E  E  E  E  E   
|-------------------------|--------------------------|
|*------------------------|--------------------------|
|*------------------------|--------1--3--1--1--1--1--|
|---1-------1--1-------1--|--L--3--------------------|


  Q    E  E  Q    E  E     E  E  E  E  E  E  E  E     
------------------------|---------------------------||
--1-------1--1-------1--|--L--1--1--1--1--2--1-----*||
------------------------|-----------------------2--*||
------------------------|---------------------------||


   Q    E  E  Q    E  E     E  Q    E  E  E  E  E   
-------------------------|-------------------------|
*------------------------|-------------------------|
*--1-------1--1-------1--|--L--1----1--1--6--4--3--|
-------------------------|-------------------------|


  Q    E  E  Q    E  E     E  Q    E  E  E  E  E   
------------------------|-------------------------|
------------------------|-------------------------|
------------------------|----------------3--4--6--|
--3-------3--3-------3--|--L--3----3--3-----------|


  Q    E  E  Q    E  E     E  E  E  E  E  E  E  E   
------------------------|--------------------------|
------------------------|--------------6--4--3-----|
------------------------|--------5--6-----------4--|
--6-------6--6-------6--|-----6--------------------|


  Q    E  E  Q    E  E     E  Q    E  Q    Q     
------------------------|-----------------------|
------------------------|-----------------------|
------------------------|-----6-------6---------|
--3-------3--3-------3--|--L-------3-------3----|


  E  E  E  E  E  Q    E     E  E  E  E  E  E  Q     
-------------------------|-------------------------|
--------3--------3----2--|--L--3--2--3--2--1-------|
-------------------------|--------------------2----|
--1--1-----1--1----------|-------------------------|


  Q    E  E  Q    E  E     E  E  E  E  E  E  E  E   
------------------------|--------------------------|
------------------------|-----1--2--1--4--2--1-----|
--1-------1--1-------1--|--1--------------------2--|
------------------------|--------------------------|


  E  E  E  E  E  Q    E     E  E  E  E  E  E  Q     
-------------------------|-------------------------|
--------3--------3----2--|--L--3--2--3--2--1-------|
-------------------------|--------------------2----|
--1--1-----1--1----------|-------------------------|


  Q    E  E  Q    E  E     E  E  E  E  E  E  E  E   3x
------------------------|---------------------------||
------------------------|-----1--2--1--4--2--1-----*||
--1-------1--1-------1--|--1--------------------2--*||
------------------------|---------------------------||


  W                   Q    Q    H          
-------------------|---------------------||
-------------------|---------------------||
--1----------------|--L----1-------------||
-------------------|---------------------||




Duration Legend
---------------
W - whole
H - half
Q - quarter
E - 8th
S - 16th
T - 32nd
X - 64th
. - note dotted
|-n-|  - n-tuplets


Tablature Legend
----------------
L - tied note
x - dead note
g - grace note
(n) - ghost note
> - accentuded note
NH - natural harmonic
AH - artificial harmonic
TH - tapped harmonic
SH - semi harmonic
PH - pitch harmonic
h - hammer on
p - pull off
b - bend
br - bendRelease
pb - preBend
pbr - preBendRelease
brb - bendReleaseBend
\n/ - tremolo bar dip
\n - tremolo bar dive
-/n - tremolo bar Release up
/n\ - tremolo bar inverted dip
/n - tremolo bar return
-\n - tremolo bar Release down
S - shift slide
s - legato slide
/ -  slide into from below or out of upwards
\ -  slide into from above or out of downwards
~ - vibrato
W - wide vibrato
tr - trill
TP - tremolo picking
T - tapping
S - slap
P - pop
< - fade in
^ - brush up
v - brush down
            

comments powered by Disqus
↑ Back to top | Green Day Bass for Coming Clean. Lyrics for acoustic guitar and electric guitar. Tablatures and chords are parodies/interpretations of the original songs. You may use it for private study, scholarship, research or language learning purposes only