» » »

Coming Clean Tabs (ver.2)

Artists:  A B C D E F G H I J K L M N O P Q R S T U V W X Y Z # 

Coming Clean Tabs (ver.2)

Green Day
Rating:
0/5 (0 votes)

Hard to play? Try these video lessons and learn fast.
                green day
coming clean
Verse
e|-----------------------------------------------------------------------|
B|-----------------------------------------------------------------------|
G|-7-7-7-7-7-7-7-----------------7-7-7-7-7-7-7---------------------------|
D|-7-7-7-7-7-7-7--9-9-9-9-9-9-9--7-7-7-7-7-7-7--9-9-9-9-9-9-9------------|
A|-5-5-5-5-5-5-5--9-9-9-9-9-9-9--5-5-5-5-5-5-5--9-9-9-9-9-9-9------------|
E|----------------7-7-7-7-7-7-7-----------------7-7-7-7-7-7-7------------|

Chorus
e|-----------------------------------------------------------------------|
B|-----------------------------------------------------------------------|
G|-----------------------------------------------------------------------|
D|-7-7-7-7-7-7-7-7-7--5-5-5-5-5-5-5-5--7-7-7-7-7-7-7-7--5-5-5-5-5-5-5-5--|
A|-7-7-7-7-7-7-7-7-7--5-5-5-5-5-5-5-5--7-7-7-7-7-7-7-7--5-5-5-5-5-5-5-5--|
E|-5-5-5-5-5-5-5-5-5--3-3-3-3-3-3-3-3--5-5-5-5-5-5-5-5--3-3-3-3-3-3-3-3--|

just alternate verse then chorus 4 times and that's it.  the intro is just hit the D 
(first chord) and the B (second chord) and let em ring for two measures a piece.  end on
a D.  you can also play the B bar 2nd fret on A.  if u don't know what that is then
don't bother.  the bassline is the same as the guitar riff: D B D B A G A G
            
Hard to play? Try these video lessons and learn fast. | Correct




comments powered by Disqus
↑ Back to top | Tablatures and chords are parodies/interpretations of the original songs. You may use it for private study, scholarship, research or language learning purposes only