» » »

Green Day, Best Thing In Town Bass tabs (ver.2)

Artists:  A B C D E F G H I J K L M N O P Q R S T U V W X Y Z # 

Best Thing In Town Bass tabs (ver.2)

Green Day Tabs
 Rating:
4/5 (4 votes)
Best Thing In Town lessons Tabs too difficult? Try these video lessons and learn fast
                Best Thing In Town:


Intro:
|-------------------------------------------------|
|-------------------------------------------------|
|-4-4-4-4-4-4-4-4-3-3-3-3-3-3-3-3-2-2-2-2-2-2-2-2-|
|-------------------------------------------------|
verse:
|------------------|------|---------------|------|
|------------------|------|---------------|------|
|------------------|-(x4)-|-3-------------|-(x4)-|
|-4/6-6-6-6-6-6-6--|------|---4-6-6-6-6-6-|------|
chorus:
|------------------------------------------------------------------------|
|------------------------------------------------------------------------|
|6---2-----6---2-----------------6-6-6-6---------2-2-2-2-----------------|
|--6---2-1---6---2-2-2-2-1-1-1-1---------6-6-6-6---------2-2-2-2-1-1-1-1-|


that's all i have time for now but if anyone has the btab for:
The One I Want
Tight Wad Hill																																		-       -
My Generation                                  | |     | |
80					                                        | | - - | |
16                                             |_|  |  | |
Knowledge or																                  /  _| |  | |
Chump , please post them thanks - Adam       |  |  -  -  |
                                              \  \       /
                                               ----------
            
Submit corrections

comments powered by Disqus
↑ Back to top | Green Day Bass for Best Thing In Town. Lyrics for acoustic guitar and electric guitar. Tablatures and chords are parodies/interpretations of the original songs. You may use it for private study, scholarship, research or language learning purposes only