>
 >
Best Thing In Town

Best Thing In Town Guitar Tabs

Green Day - Best Thing In Town chords, tabs, tablatures, lyrics

Guitar lessons | Add/correct | Request | Top 50 tabs Artists:  A B C D E F G H I J K L M N O P Q R S T U V W X Y Z 0-9

Best Thing In Town Guitar Tabs – Green Day

CD, Sheet music, Poster

Do you like Best Thing In Town? Share with your friends now
Bass TabsTabsUkulele
-------------------------------------------------------------------------------
                             BEST THING IN TOWN SOLO-Green Day
-------------------------------------------------------------------------------

| /  slide up
| \  slide down
| h  hammer-on
| p  pull-off
| ~  vibrato
| +  harmonic
| x  Mute note
| s  stop chord immediately after youve played it.

Tuning: Down half a step

I downloaded a tab for the whole kerplunk album, which had the solos for Strangeland, 
Best Thing in Town and My Generation, so here is the Best Thing in Town Solo.

e-0-0-0-0-0-0-0-0-0-0-0-0-0-0-0-0-0-0-0-0-0-0-0-0-0-0-0-0---0---0-0-------0-0-|
B5-5-5-5-5-5-5-5-3-3-3-3-3-3-3-3-1-1-1-1-1-1-1-1-0-0-0-0---0---0-0-----------|
G-----------------------------------------------------0-0-----2b----2h3h4-----|
D---------------------------------------------------------4~------------------|
A-----------------------------------------------------------------------------|
E-----------------------------------------------------------------------------|

e-0---------------------0---0-0-0-----0--0--0------------12--------12--------12-|
B------------------------0---0-0-----0-12-12---------12--------12--------12----|
G--------0-0h2p0---0-2b-----------2-4---------14b-14b-------14b-------14b-------|
D---2-2----------2------------------4-------------------------------------------|
A-------------------------------------------------------------------------------|
E-------------------------------------------------------------------------------|

e--------12------------------------------------------------------------0-----|
B----12----15--15--15--15---15--15--15--15--15------------------------0----0|
G-14b-------14b-14b-14b-12b-14b-12b-12b-14b-12b-0-0-0-2-2p0---0-2h3h4---2b--|
D------------------------------------------------------------2---------------|
A----------------------------------------------------------------------------|
E----------------------------------------------------------------------------|

e-0--------------------------------------------------------------------------|
B---------------------------------------------------------------------------|
G---2bp0---0-0h2p0---0-------------------------------------------------------|
D--------2---------2---2p0---------------0-----------------------------------|
A--------------------------2p0-----2-5p0-1p0---------------------------------|
E------------------------------0h3-----------3-------------------------------|

The tab on here for this song is excellent, so I thought I would try and find a tab for 
solo to go with it.
==============================================================================================





Comments


Popular Green Day tabs & chords
80  Bass Tabs
Castaway 2 Bass Tabs
Boulevard Of Broken Dreams 8 Chords
Fuck Time Drum Tabs
American Idiot Tabs
Dont Want To Fall In Love Tabs
Nice Guys Finish Last Tabs
Seventeen Tabs
Stuart And The Ave Tabs



Song lyrics



↑ Back to top | Tablatures and chords are parodies/interpretations of the original songs. You may use it for private study, scholarship, research or language learning purposes only
© 2014 AZChords.com Contact us | Privacy policy | DMCA | Add/correct tabs | Request tabs | Top 50 tabs