» » »

Green Day, Best Thing In Town Bass tabs (ver.1)

Artists:  A B C D E F G H I J K L M N O P Q R S T U V W X Y Z # 

Best Thing In Town Bass tabs (ver.1)

Green Day Tabs
 Rating:
4/5 (4 votes)
Best Thing In Town lessons Tabs too difficult? Try these video lessons and learn fast
1
                Half tuning. E becomes Eb and every other string goes down half a step too.
If you couldn’t be bothered half tuning your guitar just play the 
High Eb (6th fret on A string or 1st fret on D string).

p         = pull off
h         = hammer on          
/          = slide
#         = deadstrum          
pause  = |---  ---|  


Intro:
G|-----------------------------|
D|-----------------------------|
A|-5v55-4v44-3v33--------------|
E|-----------------------------|


Verse:
G|----------|
D|----------|
A|-5h7-7x---| (x4)
E|----------|


Chorus:
G|----------------|
D|----------------|
A|-44-------------| (x4)
E|---55-7777------|


Bridge:
G|------------------------|
D|------------------------|
A|-7-77-------------------| (x2)
E|-----7-77-8-88--33-22---|

G|------------------------|
D|------------------------|
A|-7777-------------------| (x8)
E|-----7777-8888--33-22---|




Order:
Intro
Verse
Chorus
Verse
Chorus
Bridge
Intro
Chorus
Verse
Chorus
Intro
            
Submit corrections

comments powered by Disqus
↑ Back to top | Green Day Bass for Best Thing In Town. Lyrics for acoustic guitar and electric guitar. 1 Tablatures and chords are parodies/interpretations of the original songs. You may use it for private study, scholarship, research or language learning purposes only