>
 >
American Eulogy 2

American Eulogy 2 Bass Tabs

Green Day - American Eulogy 2 chords, tabs, tablatures, lyrics

Guitar lessons | Add/correct | Request | Top 50 tabs Artists:  A B C D E F G H I J K L M N O P Q R S T U V W X Y Z 0-9

American Eulogy 2 Bass Tabs – Green Day

CD, Sheet music, Poster

Do you like American Eulogy 2? Share with your friends now
Bass TabsBass Tabs v2ChordsTabsTabs v2Ukulele
-------------------------------------------------------------------------------
			     American Eulogy - Green Day
-------------------------------------------------------------------------------


I tabbed this song because the other tab kinda sucks


Tuning: Standard  (EADG)


Pt. 1: Mass Hysteria

Intro x4  (Come in at 0:30)

G|---------------|
D|---------------|
A|3--44----------|
E|------44444444-|


Verse x2

G|------------------------------------------------------------------|
D|------------------------------------------------------------------|
A|44444444--------44444444--------44444444--------------------------|
E|--------44444444--------22222222--------44444444-22222222-4444444-|

Intro x4
Verse x2
Intro x4


Bridge x1

G|------------------------------------------------------------------|
D|------------------------------------------------------------------|
A|4~---------3~-----1~----------------------6~----------------------|
E|------------------------4~----2~---1~---------------3--44---3--44-|


Guitar Solo x1

G|------------------------------------------------------------------------|
D|------------------------------------------------------------------------|
A|----------------------------4---4-----------------------------------5-/-|
E|2222222222222222-44444444-44--44--2222222222222222-44444444-55555555----|



Pt. 2: Modern World

Chorus x4  (Come in at 2:31)

G|-------------------|
D|-------------------|
A|5555---------------|
E|----5555-3333-5555-|


Verse x1

G|----------------------------------------------------------------|
D|----------------------------------------------------------------|
A|55------------55--55--------------55----------55--55----------5-|
E|-----55--33-----------55--33--55------55--33----------55--3-5---|

Chorus x4


Bridge x1

G|----------------------------------------------------------------------|
D|----------------------------------------------------------------------|
A|2-2-2-2----------------5555-4-2-2-2-2---------------------------------|
E|-------2-2222222-3-3-33--------------2-2222222-3-3-33-5-5-5-5-5-5-5-5-|


Guitar Solo

G|-------------------|
D|-------------------|
A|5555---------------| x3
E|----5555-3333-5555-|

G|---------------|
D|---------------|
A|5555---------5-|
E|----5555--3-5--|

Verse x1


Pre-Chorus x1  (This is the only part I'm not too sure about)

G|--------------------------------------------------------|
D|--------------------------------------------------------|
A|5555---------55555555--------------5555---------5555-5/-|
E|----5555-3333--------5555-3333-5555----5555-3333--------|

Then just repeat the chorus until the end of the song


PEACE


| /  slide up
| \  slide down
| h  hammer-on
| p  pull-off
| ~  vibrato
| +  harmonic
| x  Mute note
===============================================================================





Comments


Popular Green Day tabs & chords
Poprocks & Coke 1 Bass Tabs
Church On Sunday Chords
F O D Chords
Boulevard Of Broken Dreams Drum Tabs
American Idiot (Solo) Tabs
Extraordinary Girl Tabs
I Want To Be On T.V 1 Tabs
Nice Guys Finish Last 2 Tabs
Poprocks And Coke 1 Tabs
Stuck With You Tabs


Song lyrics



↑ Back to top | Tablatures and chords are parodies/interpretations of the original songs. You may use it for private study, scholarship, research or language learning purposes only
© 2014 AZChords.com Contact us | Privacy policy | DMCA | Add/correct tabs | Request tabs | Top 50 tabs