» » »

Green Day, American Eulogy Tabs (ver.2)

Artists:  A B C D E F G H I J K L M N O P Q R S T U V W X Y Z # 

American Eulogy Tabs (ver.2)

Green Day Tabs
 Rating:
4/5 (4 votes)
American Eulogy lessons Tabs too difficult? Try these video lessons and learn fast
                \-mass hysteria

intro/chorus
guitar1
|------------------------------|
|------------------------------|
|--5--56-----------------------|x4
|--5--56-66666666--------------|
|--3--34-66666666--------------|
|--------44444444--------------|

guitar 2
|--------99--99----------------|
|----------99--99--------------|
|------------------------------|
|------------------------------|x4
|------------------------------|
|------------------------------|

verse(both guitars)
|------------------------------------------------------------------|
|------------------------------------------------------------------|
|-66666666--------66666666--------66666666-------------------------|
|-6666666666666666666666664444444466666666666666664444444466666666-|x2
|-4444444466666666444444444444444444444444666666664444444466666666-|
|---------44444444--------22222222--------444444442222222244444444-|

repeat chorus
repeat verse
repeat chorus
then:
|----------------------------------------------------------------|
|-----6-------4-------6-------4-------6-------4-------4-------4--|
|----6-6-----5-5-----6-6-----3-3-----6-6-----5-5-----3-3-----5-5-|
|---6---6---6---6---6---6---4---4---6---6---6---6---4---4---6---6|
|--4-------6-------4-------4-------4-------6-------4-------6-----|
|-4-------4-------4-------2-------4-------4-------2-------4------|

|----------------------------------------------------------------|
|----------------------------------------------------------------|
|66666666-6~-----------------------------------------------------|
|xxxxxxxx-6~----6~----4~----4~----4~----4~--5-56--5-56-----------|
|44444444-4~----6~----4~----3~----4~----3~--5-56--5-56-----------|
|---------------4~----2~----1~----2~----1~--3-34--3-34-----------|

solo
|-9999999988886666--------888811111111--9999999988886666--------44444444---|
|-----------------99999999------------------------------99999999-----------|
|--------------------------------------------------------------------------|
|--------------------------------------------------------------------------|
|--------------------------------------------------------------------------|
|--------------------------------------------------------------------------|

/modern world

intro(guitar 1)
|--------------------------------|
|--------------------------------|
|-7-----------7------------------|
|-7-7-5-7757--7-7-5-777557--------|
|-5-7-5-7757--5-7-5-777557--------|
|---5-3-5535----5-3-555335--------|

chorus(both guitars)

|------------------------------|
|------------------------------|
|-7777-------------------------|x4
|-7777777755557777-------------|
|-5555777755557777-------------|
|-----555533335555-------------|


verse(both guitars)
|--------------------------------------------------------------|
|--------------------------------------------------------------|
|-77----------77----------77----------77------7----------------|
|-77-77-55-77-77-77-55-77-77-77-55-77-77-77-577----------------|
|-55-77-55-77-55-77-55-77-55-77-55-77-55-77-575----------------|
|----55-33-55----55-33-55----55-33-55----55-35-----------------|

repeat chorus

bridge(guitar 1)
|-------------------------------------------------------|
|-------------------------------------------------------|
|-4444----7777----4444----7777--------------------------|
|-444444447777555544444444777777777777------------------|
|-222244445555555522224444555577777777------------------|
|-----2222----3333----2222----55555555------------------|

bridge(guitar 2)
|---------------------------------------------------------|
|---------------------------------------------------------|
|-4444----7777------4444----7777--------------------------|
|-444444447777------44444444777777777777------------------|
|-222244445555-5-4--22224444555577777777------------------|
|-----2222--------------2222----55555555------------------|

solo(guitar 1)
|-------------------10-------10h12p10-121210-12s14~--14-12-10-|
|--10~--101087~---8----8-7~-----------------------------------|
|-------------------------------------------------------------|
|-------------------------------------------------------------|
|-------------------------------------------------------------|
|-------------------------------------------------------------|

solo(guitar 2)
|----------------------------------------------------------------|
|----------------------------------------------------------------|
|-7777------------7777------------7777------------7777---------7-|
|-77777777555577777777777755557777777777775555777777777777-5-7-7-|
|-55557777555577775555777755557777555577775555777755557777-5-7-5-|
|-----555533335555----555533335555----555533335555----5555-3-5---|

repeat verse

verse(2nd part guitar 1)
|--------------------------------------------------------------|
|--10*-10*-10*10*------------10*-10*-10*10*--------------------|
|-----------------8*-8*-8*8*----------------8*-8*-8*8*---------|x?
|--------------------------------------------------------------|
|--------------------------------------------------------------|
|--------------------------------------------------------------|

repeat chorus till fade


 and there you go:-) have fun
            
Submit corrections

comments powered by Disqus
↑ Back to top | Green Day Tabs for American Eulogy. Lyrics for acoustic guitar and electric guitar. Tablatures and chords are parodies/interpretations of the original songs. You may use it for private study, scholarship, research or language learning purposes only