» » »

American Eulogy Bass tabs (ver.1)

Artists:  A B C D E F G H I J K L M N O P Q R S T U V W X Y Z # 

American Eulogy Bass tabs (ver.1)

Green Day
Rating:
0/5 (0 votes)

Hard to play? Try these video lessons and learn fast.
                -------------------------------------------------------------------------------
			   American Eulogy-Green Day
-------------------------------------------------------------------------------

Tuning:Standard

Part I-Mass Hysteria

Chorus x2
G|---------------------------------------------------------------------------|
D|------66666666-------------------------------------------------------------|
A|-3-44-----------3-44-------------------------------------------------------|
E|---------------------44444444----------------------------------------------|

Verse x2
G|---------------------------------------------------------------------------|
D|--------------------------6-4-444444--------6------------------------------|
A|-4-44444------------4-444-------------4-444--------------------------------|
E|---------4-44-4444----------------------------4-44-4444-2-22222-4-44444----|

Chorus x2

Verse x2

Chorus x2

Interlude
G|---------------------------------------------------------------------------|
D|-----------------------------6--------6------------------------------------|
A|-4~--3~--1~----------6~----------------------------------------------------|
E|-------------4~--2~------3-4------3-4--------------------------------------|

Guitar solo
G|---------------------------------------------------------------------------|
D|---------------------------------------------------------------------------|
A|-------------4----4---------------5----------------------------------------|
E|-2x16-4x8-44---44----2x16-4x8-5x8------------------------------------------|


Part II-Modern World

Chorus x4
G|---------------------------------------------------------------------------|
D|------7777-5555-7777-------------------------------------------------------|
A|-5555----------------------------------------------------------------------|
E|---------------------------------------------------------------------------|

Verse
G|---------------------------------------------------------------------------|
D|---------------------------------------------------------------------------|
A|-55-------55--55-----------55-------55--55--------5------------------------|
E|----55-33--------55-33-55-----55-33--------55-3-5--------------------------|

Chorus x4

Bridge
G|----------------------------------------------------------------------------|
D|----------------------------------------------------------------------------|
A|-2-2-222-------------------555-4--2-2-222-----------------------------------|
E|---------2-22-2222-3-3-333----------------2-22-2222-3-3-333-5-5-5-5-5-5-5-5-|

Guitar solo
G|---------------------------|-----------------------------------------------|
D|------7777-5555-7777-------|------7777-------------------------------------|
A|-5555-----------------(x3)-|-5555----------5-------------------------------|
E|---------------------------|-----------3-5---------------------------------|

Verse 2
G|---------------------------------------------------------------------------|
D|---------------------------------------------------------------------------|
A|-55-------55--55-----------55-------55--55--------5--5---------------------|
E|----55-33--------55-33-55-----55-33--------55-3-5--------------------------|

G|---------------------------------------------------------------------------|
D|---------------------------------------------------------------------------|
A|-5555-----------5555--5555-----------------5555-----------5555--5----------|
E|------5555-3333------------5555-3333-5555-------5555-3333------------------|

Chorus until the song fades out



| /  slide up
| \  slide down
| h  hammer-on
| p  pull-off
| ~  vibrato
| +  harmonic
| x  Mute note
===============================================================================
            
Hard to play? Try these video lessons and learn fast. | Correct




comments powered by Disqus
↑ Back to top | Tablatures and chords are parodies/interpretations of the original songs. You may use it for private study, scholarship, research or language learning purposes only