>
 >
27 1

27 1 Guitar Tabs

Fall Out Boy - 27 1 chords, tabs, tablatures, lyrics

Guitar lessons | Add/correct | Request | Top 50 tabs Artists:  A B C D E F G H I J K L M N O P Q R S T U V W X Y Z 0-9

27 1 Guitar Tabs – Fall Out Boy

CD, Sheet music, Poster

Do you like 27 1? Share with your friends now
Bass TabsChordsChords v2TabsTabs v2Tabs v3Ukulele
pls comment and rate... =)


FOB-27
"If home is where the heart is
Then we’re all just f@#ked"

Standard Tuning

Intro-
GtrI
|-------------------------------------------|
|-33-22-2--33-22-2----33-22-2--33-22-2------|
|-44-33-3--44-33-3----44-33-3--44-33-3------|
|-44-44-4--44-44-4----44-44-4--44-44-4------|
|-22-44-4--22-44-4----22-44-4--22-44-4------|
|----22-2-----22-2-------22-2-----22-2------|
GtrII
|---------------------2~--------------------|
|---------------------3~--------------------|
|---------------------4~--------------------|
|---------------------4~--------------------|
|---------------------2~--------------------|
|-------------------------------------------|

Verse-
GtrI

|--2-22-2--2--22-2--3-00-0-3--3-2-0---00-0-0-0-2-2-22-2--2-22-|
|--3-22-2--3--22-2--3-00-0-3--3-2-0---00-0-0-0-2-3-22-2--3-22-|
|--4-33-2--4--33-3--4-00-0-4--4-2-0---00-0-0-0-2-4-33-3--4-33-|
|--4-44-4--4--44-4--5-22-2-5--5-4-2---22-2-2-2-2-4-44-4--4-44-|2x
|--2-44-4--2--44-4--5-22-2-5--5-4-2---22-2-2-2-2-2-44-4--2-44-|
|----22-2-----22-2--3-00-0-3--3-2-0---00-0-0-0-0---22-2----22-|


GtrII

|-------------------------------------------------------------|
|-------------------------------------------------------------|
|--4-------4-------------------------------------4-------4----|
|--4-44-4--4--44-4--5-22-2-5--5-4-2---22-2-2-2-2-4-44-4--4-44-|2x
|--2-44-4--2--44-4--5-22-2-5--5-4-2---22-2-2-2-2-2-44-4--2-44-|
|----22-2-----22-2--3-00-0-3--3-2-0---00-0-0-0-0---22-2----22-|

Refrain-
GtrI
|---------------------------------------------------------------|
|---------------------------------------------------------------|
|-4-4-4-4-4-4-4-4-4-4-4-4-4-4-4-4-4-4-4-4-4-4-4-4-3-3-3-3-3-3-3-|
|-5-5-5-5-5-5-5-5-4-4-4-4-4-4-4-4-5-5-5-5-5-5-5-5-4-4-4-4-4-4-4-|
|-5-5-5-5-5-5-5-5-2-2-2-2-2-2-2-2-5-5-5-5-5-5-5-5-4-4-4-4-4-4-4-|
|-3-3-3-3-3-3-3-3-----------------3-3-3-3-3-3-3-3-2-2-2-2-2-2-2-|

Chorus-
GtrI
|---------------------------------------------------------------------|
|---------------------------------------------------------------------|
|-4-444---4-444-------------------------------------44444444----------|
|-4-444-4-4-444-7--5555555555555-4-2222222222222222-44444444-77777777-|
|-2-222-4-2-222-7--5555555555555-4-2222222222222222-22222222-77777777-|
|-------2-------5--3333333333333-2-0000000000000000----------55555555-|

|----------------------------------------------|
|----------------------------------------------|
|--7-777-6---7777777-222222222222-3333-4~------|
|--7-777-7---7777777-222222222222-3333-4~------|
|--5-555-0---5555555-000000000000-1111-2~------|
|----------------------------------------------|

GtrII

|---------------------------------------------------------------------|
|---------------------------------------------------------------------|
|-7-777-6-7-777-6-----------------------------------------------------|
|------------------5555555555555-4-2222222222222222-99999999-77777777-|
|-5-555-4-5-555-4--5555555555555-4-2222222222222222-99999999-77777777-|
|------------------3333333333333-2-0000000000000000-77777777-55555555-|

|---------------------------------------------------------|
|---------------------------------------------------------|
|-7-777-6-7-777-6-6666666666666-6~--7~--------------------|
|---------------------------------------------------------|
|-5-555-4-5-555-4-4444444444444-4~--5~--------------------|
|---------------------------------------------------------|

Do intro-
Do Verse-
Refrain-

ChorusII

GtrI
|---------------------------------------------------------------------|
|---------------------------------------------------------------------|
|-4-444---4-444-------------------------------------44444444----------|
|-4-444-4-4-444-7--5555555555555-4-2222222222222222-44444444-77777777-|
|-2-222-4-2-222-7--5555555555555-4-2222222222222222-22222222-77777777-|
|-------2-------5--3333333333333-2-0000000000000000----------55555555-|

|----------------------------------------------------|
|----------------------------------------------------|
|--7-777-6---7777777-222222222222-3333-4~-4~-4~-4~---|
|--7-777-7---7777777-222222222222-3333-4~-4~-4~-4~---|
|--5-555-0---5555555-000000000000-1111-2~-2~-2~-2~---|
|----------------------------------------------------|

GtrII

|---------------------------------------------------------------------|
|---------------------------------------------------------------------|
|-7-777-6-7-777-6-----------------------------------------------------|
|------------------5555555555555-4-2222222222222222-99999999-77777777-|
|-5-555-4-5-555-4--5555555555555-4-2222222222222222-99999999-77777777-|
|------------------3333333333333-2-0000000000000000-77777777-55555555-|

|---------------------------------------------------------|
|---------------------------------------------------------|
|-7-777-6-7-777-6-6666666666666-7~--7~-----5~-----5~------|
|---------------------------------------------------------|
|-5-555-4-5-555-4-4444444444444-5~--5~-----5~-----5~------|
|---------------------------------------------------------|

Presolo- Bm let ring 

Solo-
GtrI
|-------------------------------------------------------------------|
|-----------------------------------------------------10-12------10-|
|-(4)-s-7-777---9---11---9-11-12---11-9-------------11--------11----|
|-------------9---9----9---------9------12-11--9------------9-------|
|------------------------------------------------12-----------------|
|-------------------------------------------------------------------|
or

|-------------------------------------------------------------------|
|-(0)-s-3-333p0-5p0-7p0--5-7-8p0--7-5------------------10-12-----10-|
|---------------------------------------7--6--------11--------11----|
|---------------------------------------------9-7-----------9-------|
|-------------------------------------------------------------------|
|-------------------------------------------------------------------|

then

|-------------------------------------------------------------------|
|-------------------------------------------------------------------|
|---11-9--7----------6-7---9-7b------7b--------7-9-7b--------7b-----|
|-9----------9-7---9-----------9--7-9---9--7-9--------9--7-9----9---|
|-------------------------------------------------------------------|
|-------------------------------------------------------------------|

|-------------------------------------------------|
|-(10)s12-12-12-12-0-7-0-14/15--0-17-0-19-0-22-0--|
|-------------------------------------------------|
|-------------------------------------------------|
|-------------------------------------------------|
|-------------------------------------------------|

|-------------------------------------------------------------------------|
|-17-17-15-17---17-15-17---17-15-1717^(19)--17-15-17--17-15-1717^(19)-----|
|-------------------------------------------------------------------------|
|-------------------------------------------------------------------------|
|-------------------------------------------------------------------------|
|-------------------------------------------------------------------------|



|----------------------------------------------------------|
|-17-15-17---17-15-17/15-1212--12-10-12--14/15--12-12~-----|
|----------------------------------------------------------|
|----------------------------------------------------------|
|----------------------------------------------------------|
|----------------------------------------------------------|

|---------------------------|
|-10h12-12------------------|
|----------9h11-9-----------|
|------------------12-9~----|
|---------------------------|
|---------------------------|

GtrII
|-------------------------------------------------------------|
|-------------------------------------------------------------|
|--4-------4-------------------------------------4-------4----|
|--4-44-4--4--44-4--5-22-2-5--5-4-2---22-2-2-2-4-4-44-4--4-44-|2x
|--2-44-4--2--44-4--5-22-2-5--5-4-2---22-2-2-2-4-2-44-4--2-44-|
|----22-2-----22-2--3-00-0-3--3-2-0---00-0-0-0-2---22-2----22-|


Refrain-
GtrII- G Bm G F#

|---------------------------|
|---------------------------|
|-------4-------------------|
|-5~----4~----5~-444444444~-|
|-5~----2~----5~-444444444~-|
|-3~----------3~-222222222~-|
GtrI
|---------------------------|
|---------------------------|
|-4~~~~~~~~~~~~~~~~~3^r^r^r-|
|---------------------------|
|---------------------------|
|---------------------------|


GtrIdo Chorus II
GtrII


|--------------------------------------------------------------|
|--------------------------------------------------------------|
|-7-777-6-7-777-6----------------------------------------------|
|------------------5555555555555-4-2222222222222222-99999999---|
|-5-555-4-5-555-4--5555555555555-4-2222222222222222-99999999---|
|------------------3333333333333-2-0000000000000000-77777777---|


2:57 ?
|---------------------------|
|----------7---------7-8----|
|-----6-7-9------7-9--------|
|-7-9---------7-9-----------|
|---------------------------|
|---------------------------|

|---------------------------------------------------------|
|---------------------------------------------------------|
|-11-111111-9--11-111111-141414141414-12~-7~--7~--7~--7~--|
|---------------------------------------------------------|
|-9--9-9-9--7--9--9-9-9--121212121212-10--5~--5~--5~--5~--|
|---------------------------------------------------------|





Comments


Popular Fall Out Boy tabs & chords
A Little Less Sixteen Candles, A Little More "Touch Me" Bass Tabs
The Phoenix 2 Bass Tabs
Tell That Mick He Just Made My List Of Things To Do Today Chords
Thnks Fr Th Mmrs 7 Chords
Carpal Tunnel Of Love 2 Tabs
Grenade Jumper 1 Tabs
Growing Up Tabs
Hum Hallelujah 4 Tabs
Thnks Fr Th Mmrs 1 Tabs
Golden Ukulele


Song lyrics



↑ Back to top | Tablatures and chords are parodies/interpretations of the original songs. You may use it for private study, scholarship, research or language learning purposes only
© 2014 AZChords.com Contact us | Privacy policy | DMCA | Add/correct tabs | Request tabs | Top 50 tabs