» » »

Fall Out Boy, Dead On Arrival Tabs (ver.1)

Artists:  A B C D E F G H I J K L M N O P Q R S T U V W X Y Z # 

Dead On Arrival Tabs (ver.1)

Fall Out Boy Tabs
 Rating:
4/5 (4 votes)
Dead On Arrival lessons Tabs too difficult? Try these video lessons and learn fast
                Standard Tuning

I luv this song!!!! They rocks!!!


[Intro]
e|--------------------------------------|------------|
B|--------------------------------------|------------|
G|-------------------(0-4-5-4-0)--------|--^^^^^^^---|
D|---33--777--555------------------(3x)-|--5555555---|
A|---33--777--555-----------------------|--5555555---|
E|---11--555--333-----------------------|--3333333---|


[Verse] 
e|---------------------------------------------------|
B|---------------------------------------------------|
G|--55555555--*--------------^^^^^^^^-^-^---^-^------|
D|--55555555--2--3--777777---33333333-3-3---5-5------|
A|--33333333--2--3--777777---33333333-3-3---5-5------|
E|------------0--1--555555---11111111-1-1---3-3------|

e|---------------------------------------------------|
B|---------------------------------------------------|
G|--55555555--*--------------^^^^^^^^-^-^---^-^------|
D|--55555555--2--3--777777---33333333-3-3---6-6------|
A|--33333333--2--3--777777---33333333-3-3---6-6------|
E|------------0--1--555555---11111111-1-1---4-4------|


Play this on * 
e|--------------------|
B|---5-3----5-3-------|
G|--------5------5~---| (harmonic)
D|--------------------|
A|--------------------|
E|--------------------|


[Pre-chorus]
e|---------------------------------------------------|
B|---------------------------------------------------|
G|---------------------------------------------------|
D|--77777777--33333333---777777777---3-3-33---555----|
A|--77777777--33333333---777777777---3-3-33---555----|
E|--55555555--11111111---555555555---1-1-11---333----|


[Chorus]
e|---------------------------------------------------|
B|---------------------------------------------------|
G|--55-5---------------------------------------------|
D|--55-5---5--7----33-3---7--5----(4x)---------------|
A|--33-3---5--7----33-3---7--5-----------------------|
E|---------3--5----11-1---5--3-----------------------|


[Solo1]  F - C (4x) - G
e|---------------------------------------------------------------------------|
B|-----------------------33-55--------------------33-------------------------|
G|--55-44-55-44-55-44-55--------44-55-44-55-44-55----55----------------------|
D|---------------------------------------------------------------------------|
A|---------------------------------------------------------------------------|
E|---------------------------------------------------------------------------|

e|---------------------------------------------------------------------------|
B|--------------------33-55--------------------------------------------------|
G|--44-55-44-55-44-55--------44-55-44-55-44-55-------------------------------|
D|---------------------------------------------5~----------------------------|
A|---------------------------------------------------------------------------|
E|---------------------------------------------------------------------------|

[Solo2] -play along the solo1-
e|---------------------------------------------------------------------------|
B|--55-33-55-33-55-33-55-66-55---33-55-33-55-33-55-66-55---------------------|
G|---------------------------------------------------------------------------|
D|---------------------------------------------------------------------------|
A|---------------------------------------------------------------------------|
E|---------------------------------------------------------------------------|

e|---------------------------------------------------------------------------|
B|--33-55-33-55-33-55-66--8--6--5~-------------------------------------------|
G|---------------------------------------------------------------------------|
D|---------------------------------------------------------------------------|
A|---------------------------------------------------------------------------|
E|---------------------------------------------------------------------------|


-repeat verse, pre-chorus, chorus-


[Interlude]
e|-----------------------|-------------------------------------------------------|
B|-----------------------|-------------------------------------------------------|
G|--------------------5~-|-5555--7777--9999--10101010--12121212121212-14-12-7-5~-|
D|--33--77--55--(5x)--5~-|-xxxx--xxxx--xxxx---x-x-x-x---x-x-x-x-x-x-x--x--x-x-x--|
A|--33--77--55--------3~-|-3333--5555--7777---8-8-8-8--10101010101010-12-10-5-3~-|
E|--11--55--33-----------|-------------------------------------------------------|

e|---------------------------------------|---------------------------------------|
B|---------------------------------------|---------------------------------------|
G|--5~-------------------^^^^^^^^^^---55-|--101010101010--/17-17-17-17-17---55---|
D|--5~----33333333333333-3333333333---55-|---x-x-x-x-x-x--/-x--x--x--x--x---xx---|
A|--3~----33333333333333-3333333333---33-|---8-8-8-8-8-8--/15-15-15-15-15---33---|
E|--------11111111111111-1111111111------|---------------------------------------|


[Chorus2]
e|------------------------------------------|
B|------------------------------------------|
G|--55----------------55--------------------|
D|--55--3--7--5--7----55--3--7--5--7--------|
A|--33--3--7--5--7----33--3--7--5--7--------|
E|------1--5--3--5--------1--5--3--5--------|

-repeat chorus-

[Outro]
e|-------|
B|-------|
G|--55---|
D|--55---|
A|--33---|
E|-------|
            
Submit corrections

comments powered by Disqus
↑ Back to top | Fall Out Boy Tabs for Dead On Arrival. Lyrics for acoustic guitar and electric guitar. Tablatures and chords are parodies/interpretations of the original songs. You may use it for private study, scholarship, research or language learning purposes only