>
 >
Yule Shoot Your Eye Out

Yule Shoot Your Eye Out Guitar Tabs

Fall Out Boy - Yule Shoot Your Eye Out chords, tabs, tablatures, lyrics

Guitar lessons | Add/correct | Request | Top 50 tabs Artists:  A B C D E F G H I J K L M N O P Q R S T U V W X Y Z 0-9

Yule Shoot Your Eye Out Guitar Tabs – Fall Out Boy

CD, Sheet music, Poster

Do you like Yule Shoot Your Eye Out? Share with your friends now
Bass TabsChordsTabsTabs v2Tabs v3
Fall Out Boy- Yule Shoot Your Eye Out

intro (jingle bells) you can figure out strumming pattern just listen
e--------------------------------------------------------------
B-----4--2--0----5--4--0---------------------------------------
G--------------------------------------------------------------
D---4----------4-----------xhowever-many-times-i think its 8---
A--------------------------------------------------------------
E--------------------------------------------------------------

intro (guitar 2) fade in with first chords
e--0--0--0--0--------------------------------------------------
B--0--0--0--0--------------------------------------------------
G--4--6--x--1--------------------------------------------------
D--4--6--6--2--------------------------------------------------
A--2--4--6--2--------------------------------------------------
E--------4--0--------------------------------------------------

verse is same as intro and then

prechorus
...one awkward silience
e-----0--0-----0------0------------0~--0~----------------------
B-----0--0-----0------0------------0~--0~----------------------
G-----x--1-----x------1------------1~--0~----------------------
D--5--6--2--5--6--9/--2--x2--then--2~--2~----------------------
A--6--6--2--6--6--9/--2------------2~--2~----------------------
E--3--4--0--3--4--7/--0------------0~--0~----------------------

chorus
...dont come home for christmas
e--0-----0---------0-----0--0~--0~-----------------------------
B--0-----0---------0-----0--0~--0~-----------------------------
G--4--3--1---------4--3--1--1~--0~-----------------------------
D--4--4--2--4--x2--4--4--2--2~--2~-----------------------------
A--2--1--2--4------2--1--2--2~--2~-----------------------------
E--------0--2------------0--0~--0~-----------------------------

during chorus guitar 1 plays intro riff...

bridge (guitar 2) palm mute most of it
e--------------------------------------------------------------
B--------------------------------------------------------------
G------------------------------------------x3------------------
D------44---------44------44---11----22------------------------
A-2222----22-2222----------------------------------------------
E--------------------0000----0----00----00---------------------

e--------------------------------------------------------------
B--------------------------------------------------------------
G--------------------------------------------------------------
D------44---------44---------2------2------1-----1-------------
A-2222----22-2222----22----------------------------------------
E-----------------------3333---3333---3333---3333--3333--------

e--------------------------------------------------------------
B--------------------------------------------------------------
G--------------------------------------------------------------
D----------------------------5\--------------------------------
A------4------4------4-------4\--------------------------------
E-3333---3333---3333---3333--3\--------------------------------

guitar 1
e--------------------------------------------------------------
B-----2--------------------------------------------------------
G--4-----------------------------------------------------------
D--------play-that-however-many-time---------------------------
A--------------------------------------------------------------
E--------------------------------------------------------------

final chorus key change (guitar 2)
e------------------------1---1~--------------------------------
B------------------------1---1~--------------------------------
G--5--4------------5--4--2---1~--------------------------------
D--5--5--3--5-x2---5--5--3---3~-----repeat chorus--------------
A--3--2--3--5------3--2--3---3~--------------------------------
E--------1--3------------1---1~--------------------------------

key change guitar 1
e--------------------------------------------------------------
B-----5-----------6-5------------------------------------------
G--------7--5---------5----------------------------------------
D---5----------5-----------during final chorus and last few bars of song
A--------------------------------------------------------------
E--------------------------------------------------------------

last chord
e--------------------------------------------------------------
B--1~----------------------------------------------------------
G--0~----------------------------------------------------------
D--2~----------------------------------------------------------
A--3~--3\------------------------------------------------------
E--------------------------------------------------------------

please rate!





Comments


Popular Fall Out Boy tabs & chords
After Life Of The Party 1 Chords
Dance Dance 2 Chords
Fame Infamy Chords
Golden 4 Chords
Ive Got A Dark Alley And A Bad Idea That Says You Should Shut Your Mouth Summer Song 1 Chords
Thnks Fr Th Mmrs 2 Chords
Champagne For My Real Friends Real Pain For My Sham Friends Tabs
Golden 1 Tabs
I Dont Care 8 Tabs
This Aint A Scene Its An Arms Race Ukulele


Song lyrics



↑ Back to top | Tablatures and chords are parodies/interpretations of the original songs. You may use it for private study, scholarship, research or language learning purposes only
© 2014 AZChords.com Contact us | Privacy policy | DMCA | Add/correct tabs | Request tabs | Top 50 tabs