» » »

Fall Out Boy, 27 Tabs (ver.1)

Artists:  A B C D E F G H I J K L M N O P Q R S T U V W X Y Z # 

27 Tabs (ver.1)

Fall Out Boy Tabs
 Rating:
4/5 (12 votes)
27 lessons Tabs too difficult? Try these video lessons and learn fast
                Intro
e|---------------|
B|---------------|
G|-44-----44-----| X2
D|-44-444-44-444-|
A|-22-444-22-444-|
E|----222----222-|

Verse
e|------------------------------------------------------|
B|------------------------------------------------------|
G|-44-----44---------------------------44-----44-----44-|X2
D|-44-444-44-444-55-222-55--5-4-2--444-44-444-44-444-44-|
A|-22-444-22-444-55-222-55--5-4-2--444-22-444-22-444-22-|
E|----222----222-33-000-33--3-2-0--222----222----222----|

Pre-chours
e|-------------------------------------------------|
B|-------------------------------------------------|
G|------------4444-6666-7777-----------------------|
D|-5555555555-4444-6666-7777-5555555555-4444444444-|
A|-5555555555-2222-4444-5555-5555555555-4444444444-|
E|-3333333333----------------3333333333-2222222222-|
   .......... .... .... .... .......... ..........

Chours
e|---------------------------------------------------|-----------------------------|
B|---------------------------------------------------|-----------------------------|
G|-444---444444-------------------------4444-222222--|-777-2-777777-222222-3333-4~-|
D|-444-4-444444-5555555555-4-2222222222-4444-222222--|-777-2-777777-222222-3333-4~-|
A|-222-4-222222-5555555555-4-2222222222-2222-000000--|-555-0-555555-000000-1333-2~-|
E|-----2--------3333333333-2-0000000000--------------|-----------------------------|

intro
verse 
pre-chours
chours

before the solo u play this part

e|------------|
B|------------|
G|-4~--4~--4~-|
D|-4~--4~--4~-|
A|-2~--2~--2~-|
E|------------|

Solo

e|---------------------------------------|
B|-----------5-0-7-0-5-7-8-0-7-5---------|
G|-7-7-7-7-4---------------------7-6-----|
D|-----------------------------------9-7-|
A|---------------------------------------|
E|---------------------------------------|

e|-----7-------------------------------------------------------------------|
B|---7---7-5---------------------------------------------------------------|
G|-7---------7-6--------6-7-9---7-------77------7-7-------77---------------|
D|---------------9-7-9------------9-7-9---9-7-9-----9-7-9----9-7-9---------|
A|-------------------------------------------------------------------------|
E|-------------------------------------------------------------------------|


e|-----------------------------------18b-|
B|-\12-12-12-12-14-15\17-19-19-19-19-----|
G|---------------------------------------|
D|---------------------------------------|
A|---------------------------------------|
E|---------------------------------------|

e|---------------------------------------------------------------------|
B|-18-17-15-17-17h15p17-17h15p17-17h15p1717-15h17\12--12-12-12h15p12~--|
G|---------------------------------------------------------------------|
D|---------------------------------------------------------------------|
A|---------------------------------------------------------------------|
E|---------------------------------------------------------------------|



after the solo bass only and the the chours again 

at end the chours you play this part

e|------------|
B|------------|
G|-4~--4~--4~-|
D|-4~--4~--4~-|
A|-2~--2~--2~-|
E|------------|
            
Submit corrections

comments powered by Disqus
↑ Back to top | Fall Out Boy Tabs for 27. Lyrics for acoustic guitar and electric guitar. Tablatures and chords are parodies/interpretations of the original songs. You may use it for private study, scholarship, research or language learning purposes only