» » »

Fall Out Boy, 27 Bass tabs (ver.1)

Artists:  A B C D E F G H I J K L M N O P Q R S T U V W X Y Z # 

27 Bass tabs (ver.1)

Fall Out Boy Tabs
Rating:
5/5 (2 votes)
27 lessons Tabs too difficult? Try these video lessons and learn fast
                -------------------------------------------------------------------------------
-------------------------------------------------------------------------------

Tuning: standard

Intro
G|--2/4~----|
D|----------|
A|----------|
E|----------|

Verse "If home is where the heart is..."
G|-----------------------------------------------------|
D|-----------------------------------------------------|
A|-2-----2-------------------2/77-77-2/77-7--2-----2---|
E|---22-2--22-23-00-03-3-2-0-------------------22-2----|

"and I want it so bad"
G|--------------------------------------------------------|
D|--------------------------------------------------------|
A|2------2-------------------2/77-77-2/77-7--2-----2-2-0--|
E|---22-2---22-23-00-03-3-2-0------------------22-2-------|

pre-chorus "and it's kind of funny"
G|------------------------------------------------------------------------|
D|--------------------------------2222---------------------------44444444-|
A|-----------------2222-4444-5555-----------------------------------------|
E|3333333333-3-2-0---------------------3333333333333333-22222222----------|

chorus "my mind is a safe"
G|----------------------------------------------------------------------------|
D|----------------------------------------------------------------------------|
A|2-222---2-222-0-----------------------------------22222222-00000000-5-555-0-|
E|------2----------3333333333333-2-0000000000000000---------------------------|

G|-----------------------------|
D|-----------------------------|
A|5555555-000000000000-1111-2~-|
E|-----------------------------|

Verse "Milligrams in my head"
G|-----------------------------------------------------|
D|-----------------------------------------------------|
A|-2-----2-------------------2/77-77-2/77-7--2-----2---|
E|---22-2--22-23-00-03-3-2-0-------------------22-2----|

"you're a bottled star"
G|--------------------------------------------------------|
D|--------------------------------------------------------|
A|2------2-------------------2/77-77-2/77-7--2-----2-2-0--|
E|---22-2---22-23-00-03-3-2-0------------------22-2-------|

pre-chorus x1

chorus "my mind is a safe"
G|----------------------------------------------------------------------------|
D|----------------------------------------------------------------------------|
A|2-222---2-222-0-----------------------------------22222222-00000000-5-555-0-|
E|------2----------3333333333333-2-0000000000000000---------------------------|

G|----------------------------------------------|
D|----------------------------------------------|
A|5555555-000000000000-1111-2~----2~----2~----2~|
E|----------------------------------------------|

bridge
G|---------------------------------------------------|
D|---------------------------------------------------|
A|-2-----2-------------------2/77-77-2/77-7--2-----2-|
E|---22-2--22-23-00-03-3-2-0-------------------22-2--|

G|-------------------------------------------------------|
D|-------------------------------------------------------|
A|-2-----2-------------------2/77-77-2/77-7--2-----2--2-0|
E|---22-2--22-23-00-03-3-2-0-------------------22-2------|

pre-chorus x1

chorus "my mind is a safe"
G|----------------------------------------------------------------------------|
D|----------------------------------------------------------------------------|
A|2-222---2-222-0-----------------------------------22222222-00000000-5-555-0-|
E|------2----------3333333333333-2-0000000000000000---------------------------|

G|----------------------------------------|
D|----------------------------------------|
A|5555555-000000000000-1111-2~---2~---2~--|
E|----------------------------------------|
            
Submit corrections

comments powered by Disqus
↑ Back to top | Fall Out Boy Bass for 27. Lyrics for acoustic guitar and electric guitar. Tablatures and chords are parodies/interpretations of the original songs. You may use it for private study, scholarship, research or language learning purposes only