» » »

Fall Out Boy, 27 Tabs (ver.3)

Artists:  A B C D E F G H I J K L M N O P Q R S T U V W X Y Z # 

27 Tabs (ver.3)

Fall Out Boy Tabs
Rating:
3/5 (2 votes)
27 lessons Tabs too difficult? Try these video lessons and learn fast
                hey guys, this is an awesome song so please rate and leave any comments...
Standard tuneing(E-A-D-G-B-e)
27-Fall out boy
Follie a duex

e(------------)
B(------------)
G(------------)
D(------------)
A(-9-4-4-4-9--)
E(-7-2-2-2-7--) x 5

e(------------------------)
B(------------------------)
G(------------------------)
D(------------------------)
A(-4-4-4-9-4-4-4-7-4-4-4-7)
E(-2-2-2-7-2-2-2-5-2-2-2-5)

e(--------------------------------)
B(--------------------------------)
G(--------------------------------)
D(--------------------------------)
A(-3-2-7-77-7-7-77-7-7-77-7-7-77-7)
E(-5-4-7-77-7-7-77-7-7-77-7-7-77-7)Repeat verse then x2

e(--------------)
B(--------------)
G(--------------)
D(--------------)
A(-9-44-4-9-44--)
E(-7-22-2-7-22--)

Pre chorus:
e(-------------------------------------)
B(-------------------------------------)
G(-------------------------------------)
D(-------------------------------------)
A(-555555555555555599991111111112121212)
E(-333333333333333377779-9-9-9-10101010)
(pm)...................................

e(---------------------------------)
B(---------------------------------)
G(---------------------------------)
D(---------------------------------)
A(-55555555555555554444444444444444)
E(-33333333333333332222222222222222)
PM.................................


Chorus:
e(-------------------------------------------------)
B(-------------------------------------------------)
G(-------------------------------------------------)
D(-777-4-777777-5555555555-4-2222222222-7777-222222)
A(-777-4-777777-5555555555-4-2222222222-7777-222222)
E(-555-2-555555-3333333333-2-0000000000-5555-000000)

e(---------------------------)
B(---------------------------)
G(-777---777777--------3333--)
D(-777---777777-777777-3333-9)
A(-555-7-555555-777777-1333-9)
E(-----7--------777777------7)

Solo

e|---------------------------------------|
B|-----------5-0-7-0-5-7-8-0-7-5---------|
G|-7-7-7-7-4---------------------7-6-----|
D|-----------------------------------9-7-|
A|---------------------------------------|
E|---------------------------------------|

e|-----7-------------------------------------------------------------------|
B|---7---7-5---------------------------------------------------------------|
G|-7---------7-6--------6-7-9---7-------77------7-7-------77---------------|
D|---------------9-7-9------------9-7-9---9-7-9-----9-7-9----9-7-9---------|
A|-------------------------------------------------------------------------|
E|-------------------------------------------------------------------------|


e|-----------------------------------18b-|
B|-\12-12-12-12-14-15\17-19-19-19-19-----|
G|---------------------------------------|
D|---------------------------------------|
A|---------------------------------------|
E|---------------------------------------|

e|---------------------------------------------------------------------|
B|-18-17-15-17-17h15p17-17h15p17-17h15p1717-15h17\12--12-12-12h15p12~--|
G|---------------------------------------------------------------------|
D|---------------------------------------------------------------------|
A|---------------------------------------------------------------------|
E|---------------------------------------------------------------------|

Then do the verse again...
Please rate
            

comments powered by Disqus
↑ Back to top | Fall Out Boy Tabs for 27. Lyrics for acoustic guitar and electric guitar. Tablatures and chords are parodies/interpretations of the original songs. You may use it for private study, scholarship, research or language learning purposes only