» » »

Eraserheads, Ang Huling El Bimbo Tabs (ver.2)

Artists:  A B C D E F G H I J K L M N O P Q R S T U V W X Y Z # 

Ang Huling El Bimbo Tabs (ver.2)

Eraserheads Tabs
 Rating:
4/5 (4 votes)
Ang Huling El Bimbo lessons Tabs too difficult? Try these video lessons and learn fast
1
                -----------------------------------------------------------------------------
ANG HULING EL BIMBO - Eraserheads
-----------------------------------------------------------------------------

Tuning: Standard

E|------------------------------------------------------------------------|
B|-------8-----------8--------10-----------10-----------13----------------|
G|---7-------7---7--------9--------9---9----------12----------12----12----|
D|-5---5---5---5---5----7---7----7---7---7-----10----10----10----10----10-|
A|------------------------------------------------------------------------|
E|------------------------------------------------------------------------|

E|--------------------------------------------------------------------------|
B|-13--------8--------------------------------------------------------------|
G|-------7----------4-6-4---------------------------------------------------|
D|-----5---5----4-6-------6-4----------5~--5\4-4----------------------------|
A|-----------------------------5h7-7/8-----------5~--5/6-6/8-8/10--10-9-7-5-|
E|--------------------------------------------------------------------------|

E|------------|
B|------------|
G|------------|
D|------------|
A|------------|
E|-9-7-6-5-3~-|

Verse: “Ngunit ang paborito ay pagsayaw mo ng El Bimbo…”

E|--------------------------------|
B|-8~--8~--8~--8~--8~--8~--8~--8~-|
G|-7~--7~--7~--7~--7~--7~--7~--7~-|
D|-5~--5~--5~--5~--5~--5~--5~--5~-|
A|--------------------------------|
E|--------------------------------|

Refrain: “Pagkagaling sa skwela ay didiretso na sa inyo at buong maghapon at tinuruan mo ako…”

E|-------------------------------------------------------------------------|
B|-------------------------------------------------------------------------|
G|-9-9-9-9-9-9-9-9--12-12-12-12-12-12-12-12--------------------------------|
D|-9-9-9-9-9-9-9-9--12-12-12-12-12-12-12-12--10-10-10-10-10-10-10-10-------|
A|-7-7-7-7-7-7-7-7--10-10-10-10-10-10-10-10--10-10-10-10-10-10-10-10-11-11-|
E|-------------------------------------------8--8--8--8--8--8--8--8--9--9--|

E|--------------------------------------------------------------------------|
B|--------------------------------------------------------------------------|
G|-------------------------------------------12-12-12-12-12-12-12-12--------|
D|-------------------------------------------12-12-12-12-12-12-12-12--10-10-|
A|-12-12-13-13-14-14-15-15-14-14-13-13-12-12-10-10-10-10-10-10-10-10--10-10-|
E|-10-10-11-11-12-12-13-13-12-12-11-11-10-10--------------------------8--8--|

E|-----------------------------------------------------------|
B|-----------------------------------------------------------|
G|-----------------------------------------------------------|
D|-10-10-10-10-10-10-6-6-7-7-8-8-9-9-10-10-11-11-12-12-13-13-|
A|-10-10-10-10-10-10-4-4-5-5-6-6-7-7-8--8--9--9--10-10-11-11-|
E|-8--8--8--8--8--8------------------------------------------|

Chorus: “Magkahawak ang ating kamay at walang kamalay – malay na tinuruan mo ang puso ko 
umibig ng tunay…”

E|------------------------------------------------------------------------|
B|-8-8-8-8-8-8-8-8-------10-10-10-10-10-10----------13-13-13-13-13-13--10-|
G|-7-7-7-7-7-7-7-7---9---9--9--9--9--9--9-----12----12-12-12-12-12-12--9--|
D|-5-5-5-5-5-5-5-5-7---7-7--7--7--7--7--7--10----10-10-10-10-10-10-10--7--|
A|------------------------------------------------------------------------|
E|------------------------------------------------------------------------|

E|---------------------| Repeat this tab twice then…
B|-10-10-10-10-10--8-8-|
G|-9--9--9--9--9---7-7-|
D|-7--7--7--7--7---5-5-|
A|---------------------|
E|---------------------|

Verse: “Naninigas ang aking katawan ‘pag umikot na ang plaka…”

E|-------------------------------------------------------------------------|
B|-8~--8~--8~--8~--8~--8~--8~--8-8-8~--8-8-8~--8-8-8~--8-8-8~--8-8-8~--8-8-|
G|-7~--7~--7~--7~--7~--7~--7~--7-7-7~--7-7-7~--7-7-7~--7-7-7~--7-7-7~--7-7-|
D|-5~--5~--5~--5~--5~--5~--5~--5-5-5~--5-5-5~--5-5-5~--5-5-5~--5-5-5~--5-5-|
A|-------------------------------------------------------------------------|
E|-------------------------------------------------------------------------|

E|---------------------|
B|-8~--8-8-8~--8-8-8~--|
G|-7~--7-7-7~--7-7-7~--|
D|-5~--5-5-5~--5-5-5~--|
A|---------------------|
E|---------------------|

Refrain: “Sana noon pa man ay sinabi na sa iyo kahit hindi na uso ay ito lang ang alam ko…”

E|--------------------------------------------------------------------------|
B|--------------------------------------------------------------------------|
G|-9-9-9--9-9-9--12-12-12--12-12-12-----------------------------------------|
D|-9-9-9--9-9-9--12-12-12--12-12-12--10-10-10--10-10-10---------------------|
A|-7-7-7--7-7-7--10-10-10--10-10-10--10-10-10--10-10-10--9-9-10-10-11-11-12-|
E|-----------------------------------8--8--8---8--8--8---7-7-8--8--9--9--10-|

E|------------------------------------------------------------------------|
B|------------------------------------------------------------------------|
G|---------------------------------------12-12-12--12-12-12---------------|
D|---------------------------------------12-12-12--12-12-12--10-10-10--10-|
A|-12--15--15-15-14--14-14-13--13-13-12--10-10-10--10-10-10--10-10-10--10-|
E|-10--13--13-13-12--12-12-11--11-11-10----------------------8--8--8---8--|

E|--------------------------------| Repeat Chorus then…
B|--------------------------------|
G|--------------------------------|
D|-10-10--10-10-11-11-12-12-13-13-|
A|-10-10--8--8--9--9--10-10-11-11-|
E|-8--8---------------------------|

Bridge: “Lumipas ang maraming taon…”

E|-8/13-------------9/12-----12/15-----|
B|-----------12/14---------------------|
G|------13~--------------12--------12~-|
D|-------------------------------------|
A|-------------------------------------|
E|-------------------------------------|

“Tagahugas ka raw ng pinggan sa may Ermita at isang gabi’y nasagasaan sa isang madilim 
eskinita…”

E|----------------------------------------| Repeat this tab four times then…
B|-8-----8---8-----8~--8-----8---8-----8~-|
G|---7---------7---------7---------7------|
D|-----5---5-----5---------5---5-----5----|
A|----------------------------------------|
E|----------------------------------------|

Refrain: “Lahat ng pangarap ko’y bigla lang natunaw…”

E|------------------------------------------------------------------------|
B|------------------------------------------------------------------------|
G|-9-----9---9-----9~--12-------12----12-------12~------------------------|
D|---9---------9----------12-------------12---------6-6-7-7-8-8-9-9-10-10-|
A|-----7---7-----7-----------10----10-------10------4-4-5-5-6-6-7-7-8--8--|
E|------------------------------------------------------------------------|

E|--------------------------------------------------------------------------|
B|--------------------------------------------------------------------------|
G|--------------------------------------------------12-------12----12-------|
D|-11-11-12-12-13-13-----------------------------------12-------------12----|
A|-9--9--10-10-11-11--15-15-14--14-14-13--13-13-12--------10----10-------10-|
E|--------------------13-13-12--12-12-11--11-11-10--------------------------|

E|--------------------------------------------------------| Repeat Chorus
B|--------------------------------------------------------| then…
G|-12~----------------------------------------------------|
D|------10------10---10------10~--10-10-11-11-12-12-13-13-|
A|---------10-----------10--------8--8--9--9--10-10-11-11-|
E|------------8----8-------8------------------------------|

“Magkahawak ang ating kamay at walang kamalay – malay na tinuruan mo ang puso ko na 
ng tunay…”

E|--------------------------------------------------------------------------|
B|-8-8-8-8-8-8-8-8-------10-10-10-10-10-10----------14-14-14-14-14-14-10-10-|
G|-7-7-7-7-7-7-7-7---9---9--9--9--9--9--9-----12----12-12-12-12-12-12-9--9--|
D|-5-5-5-5-5-5-5-5-7---7-7--7--7--7--7--7--10----10-10-10-10-10-10-10-7--7--|
A|--------------------------------------------------------------------------|
E|--------------------------------------------------------------------------|

E|-------------------------------------------------------------------------|
B|-10-10-10-10-8-8--8-8-8-8-8-8-8-8-------10-10-10-10-10-10----------14-14-|
G|-9--9--9--9--7-7--7-7-7-7-7-7-7-7---9---9--9--9--9--9--9-----12----12-12-|
D|-7--7--7--7--5-5--5-5-5-5-5-5-5-5-7---7-7--7--7--7--7--7--10----10-10-10-|
A|-------------------------------------------------------------------------|
E|-------------------------------------------------------------------------|

E|-------------------------|
B|-14-14-14-14-8-8-8-8-8-8-|
G|-12-12-12-12-7-7-7-7-7-7-|
D|-10-10-10-10-5-5-5-5-5-5-|
A|-------------------------|
E|-------------------------|

Solo:

E|----------------------------------------------------------------| Repeat
B|----------------------------------------------------------------| this tab
G|----------------------------------------------------------------| twice
D|-7/9-9/10-10/11-11/12~--12/14~-11----------10~--10/12-12/14-----| then…
A|----------------------------------12—10/12------------------10~-|
E|----------------------------------------------------------------|

E|-----------------------------------------------------------------------|
B|-----------------------------------------------------------------------|
G|------------------------------------------------------------9/12~--7h9-|
D|-7/9-9/10-10/11-11/12~--12/14~-11----------10~--10/12-12/14------------|
A|----------------------------------12-10/12-----------------------------|
E|-----------------------------------------------------------------------|

E|-------------------------------------------------------------------------|
B|-------------------------------------------------------------------------|
G|-8/10-10/12--7h8p7---7h8p7---7h8p7--7h8p7---7h8p7---7h8p7--7h8p7---7h8p7-|
D|-------------------9-------9--------------9-------9--------------9-------|
A|-------------------------------------------------------------------------|
E|-------------------------------------------------------------------------|

E|--------------------------------------------------------------------------|
B|--------------------------------------------------------------------------|
G|---7h8p7--8-7----------------------7h8p7---7h8p7---7h8p7--7h8p7---7h8p7---|
D|-9------------9-7-7-5-5-3----------------9-------9--------------9-------9-|
A|--------------------------9-7-5-5-----------------------------------------|
E|--------------------------------------------------------------------------|

(Use Wah effect on the bending part…)

E|--------------------------------------------------------------------------|
B|------------------------------------------------------12b-12b-12b-12b-12b-|
G|-7h8p7--7h8p7---7h8p7---7h8p7--7h8p7---7h8p7---7h8p7----------------------|
D|--------------9-------9--------------9-------9----------------------------|
A|--------------------------------------------------------------------------|
E|--------------------------------------------------------------------------|

E|---------------------------------------------------------------------|
B|-12b-12b-12b-12b-12b-12b-12b-12b-12b-12b-12b-12h13-12h13-12h13-12h13-|
G|---------------------------------------------------------------------|
D|---------------------------------------------------------------------|
A|---------------------------------------------------------------------|
E|---------------------------------------------------------------------|

E|-------------------------------------------------------------| Repeat this
B|-12h13-12h13-12h13-12h13-12h13-12h13-12h13-12h13-12h13-12h13-| tab twice
G|-------------------------------------------------------------| then…
D|-------------------------------------------------------------|
A|-------------------------------------------------------------|
E|-------------------------------------------------------------|

E|-----------------------------------------------------------------------|
B|-15~--12h14-14-16~--16~-16~--12h14-12h14-12h14-12h14-12h14-12h14-12h14-|
G|-----------------------------------------------------------------------|
D|-----------------------------------------------------------------------|
A|-----------------------------------------------------------------------|
E|-----------------------------------------------------------------------|

E|-----------------------------------------------------------------10h12-|
B|-12h14-16~--15h16-15h16-15h16-15h16-15h16-15h16-15h16-15h16-17~--------|
G|-----------------------------------------------------------------------|
D|-----------------------------------------------------------------------|
A|-----------------------------------------------------------------------|
E|-----------------------------------------------------------------------|

E|-10h12-10h12-10h12-10h12-10h12-10h12-10h12-12/14~--14/15-14-12----------|
B|---------------------------------------------------------------15-13-12-|
G|------------------------------------------------------------------------|
D|------------------------------------------------------------------------|
A|------------------------------------------------------------------------|
E|------------------------------------------------------------------------|

E|-----------------------------------------------------------------------|
B|--------14p12----14p12----14p12----14p12----14p12----14p12----14p12----|
G|-13-11--------13-------13-------13-------13-------13-------13-------13-|
D|-----------------------------------------------------------------------|
A|-----------------------------------------------------------------------|
E|-----------------------------------------------------------------------|

E|-------------------------------------------------------------------------|
B|-14p12----14p12----14p12----14p12----14p12----14p12----14p12----14p12----|
G|-------13-------13-------13-------13-------13-------13-------13-------13-|
D|-------------------------------------------------------------------------|
A|-------------------------------------------------------------------------|
E|-------------------------------------------------------------------------|

E|----------------------------------------------| Repeat this tab five times
B|-14p12----14p12----14p12----14p12----14p12----| then…
G|-------13-------13-------13-------13-------13-|
D|----------------------------------------------|
A|----------------------------------------------|
E|----------------------------------------------|

E|---------------------------------------|
B|-14-12---------------------------------|
G|-------13-11-9-8-6-5-4-3---------------|
D|-------------------------6-4-----------|
A|-----------------------------7-5-3-----|
E|-----------------------------------5-3-|
            
Submit corrections

comments powered by Disqus
↑ Back to top | Eraserheads Tabs for Ang Huling El Bimbo. Lyrics for acoustic guitar and electric guitar. 1 Tablatures and chords are parodies/interpretations of the original songs. You may use it for private study, scholarship, research or language learning purposes only