» » »

Eraserheads, Ang Huling El Bimbo Bass tabs (ver.3)

Artists:  A B C D E F G H I J K L M N O P Q R S T U V W X Y Z # 

Ang Huling El Bimbo Bass tabs (ver.3)

Eraserheads Tabs
 Rating:
3.7/5 (6 votes)
Ang Huling El Bimbo lessons Tabs too difficult? Try these video lessons and learn fast
                


Intro...

G|--------------------------------|
D|--------------------------------|
A|--------------------------------|
E|---3------3----3/1515151515\5---|

G|-------------------------|
D|-------------------------|
A|-------------------------|
E|---5----5/1515151515\8---|


G|-------------------------|
D|-------------------------|
A|-------------------------|
E|---8----8/1515151515\3---|


G|----------------------------------------|
D|----------------------------------------|
A|----------------------------------------|
E|---3----3/15-15-15-15-15\3-3-3-3-3-3-3-3|

G|-------------------------------------|
D|-------------------------------------|
A|-------------------------------------|
E|-5-5-5-5-5-5-5-5-8-8-8-8-8-8-8-8\3~--|


start at "ngunit ang paborito......"
G|-------------------------------------|
D|-------------------------------------|
A|-----------------------7\3~------3---|
E|-----3~------3/5~------------------3~|

 |--------------------------------------|
 |--------------------------------------|
 |-----------------------3~-------------|
 |--------3~-----3/5~------------3~-----|


pre-chorus 1...

G|-------------------------------------------------|
D|-------------------------------------------------|
A|-7-7-7-7-7-7-7-7-----------------3-3-3-3-3-3-3-3-|
E|-----------------3-3-3-3-3-3-3-3-----------------|

 |-----------------------------|
 |-----------------------------|
 |-5-5-5-5-5-5-5-5-5-5-5-5-5-5-| repeat 2x
 |-----------------------------|

Chorus 1....
G|------------------------------------------------------------------|
D|------------------------------------------------------------------|
A|----------------------------------3-3-3-3-3-3-3-3-----------------|
E|--3-3-3-3-3-3-3-3-5-5-5-5-5-5-5-5-----------------3-3-3-3-3-3-3-3-|

 |------------------------------------------------------|
 |------------------------------------------------------|
 |------------------------------------------------------|
 |--3-3-3-3-3-3-3-3-5-5-5-5-5-5-5-5-8-8-8-8-8-8-8-8\3~--|

Verse 3.."nanigas ang aking..."
G|----------------------------------------------------------------------|
D|----------------------------------------------------------------------|
A|--7\4~----7\3~----7\2~-------------2-55/7\4~----7\3~----7\2~---2,0----|
E|-------------------------3-----0h2h3-----------------------------3--3-|

verse 4.."lumiliwanag ang buhay...."
G|--------------------------------------------------------|
D|--------------------------------------------------2--5--|
A|--2-55/7\0-----0----0-0--0--0--2,3------3-----35--------|
E|--------------------------------------------------------|

 |--------------------------------------------------------|
 |--------------------------------------------------------|
 |----5/7---55---7--3-------2-55/7\0-----0----0-0--0--0--2|
 |--3------------------3----------------------------------|

 |------------------------------------------|
 |-----------------2--5---------------------|
 |3------3----35------------5/7---55--7-3-5-|
 |-------------------------3----------------|


Repeat Pre-Chorus...
Repeat Chorus....:)

Bridge 1..
G|--------------------------------|
D|--------------------------------|
A|--------------------------------|
E|---3------3----3/1515151515\5---|

 |-------------------------------------------------|
 |-------------------------------------------------|
 |-------------------------------------------------|
 |---5----5/1515151515\8-----8----8/1515151515\3~--|


Verse 5.."lumipas ang maraming taon..."

G|----------------------------------------------------------------------|
D|----------------------------------------------------------------------|
A|--0-----3---------2,55/7\4---7\3---7\2--------------------------------|
E|--------------3-------------------------0h2h3-----3----3--33--3-----3-|

 |----------------------------------------------------------------------|
 |----------------------------------------------------------------------|
 |--0-----0----00--0--0--23----3----33--3--3--5-------------------------|
 |----------------------------------------------3-----3----33--3-----33~|

 |---------------------------------------------------|
 |---------------------------------------------------|
 |-0~---3-----3----33--3--3--5-----------------------|
 |-----------------------------3-----3---33--3----3--|


pre-chorus..3
chorus 3..
chorus 4..G|------|
          D|------|
          A|------|
          E|--3~--|

bridge 2..
G|-----------------------------------------------|
D|-----------------------------------------------|
A|--3-----3---33--3----3--0-----0----00--0--0--2-|
E|-----------------------------------------------|

G|-----------------------------------------------|
D|-----------------------------------------------|
A|--3-----3----33--3--3--5-----------------------|
E|-------------------------3-----3---33--3----3--|

G|-----------------------------------------------|
D|-----------------------------------------------|
A|------------------------0-----0----00--0--0--2-|
E|--3-----3---33--3----3-------------------------|

G|-----------------------------------------------|
D|-----------------------------------------------|
A|--3-----3----33--3--3--5-----------------------|
E|-------------------------3-----3---33--3----3--|

Adlib..

G|----------------------------------------------------------------------|
D|----------------------------------------------------------------------|
A|------------------------0-----0----00--0--0--2--3-----3----33--3--3--5|
E|--3-----3---33--3----3------------------------------------------------|

G|------------------------|
D|------------------------|
A|------------------------|
E|--3-----3---33--3----3--|

 
G|---------------------|
D|---------------------|
A|-0h2----0h2----0h2---| 7x..
E|-----33-----33-----3-|

 G|----------|
 D|----------|
 A|----------|
 E|-3-3-3-3--| 

Outro..

G|--------------------------------------------------------|
D|--------------------------------------------------------|
A|-----------00000000-33333333-------------------00000000-|
E|--33333333-------------------33333333-33333333----------|

G|------------------------------------------------------------------|
D|------------------------------------------------------------------|
A|--3-3-3-3-3-3-3-3-----------------5-5-5-5-5-5-5-5-4-4-4-4-4-4-4-4-|
E|------------------3-3-3-3-3-3-3-3---------------------------------|

G|----------------------------------|
D|----------------------------------|
A|-3-3-3-3-3-3-3-3-2-2-2-2-2-2-2-2--|2x..
E|----------------------------------|


G|-----------------------------------|
D|-----------------------------------|
A|--5~-----4~-----3~------2~----7----|
E|-----------------------------------|




ow yeah....
it a lot of fun...
            
Submit corrections

comments powered by Disqus
↑ Back to top | Eraserheads Bass for Ang Huling El Bimbo. Lyrics for acoustic guitar and electric guitar. Tablatures and chords are parodies/interpretations of the original songs. You may use it for private study, scholarship, research or language learning purposes only