» » »

Ang Huling El Bimbo Bass tabs (ver.1)

Artists:  A B C D E F G H I J K L M N O P Q R S T U V W X Y Z # 

Ang Huling El Bimbo Bass tabs (ver.1)

Eraserheads
Rating:
0/5 (0 votes)
Tabs too difficult? Try these video lessons and learn fast.
                Song name: Ang Huling Elbimbo


Intor
|-----------------------------------------------------|
|-----------------------------------------------------|
|-----------------------------------------------------|
|-33333333/555555555/8888888/3------------------------|


Verse:(Start from “Ngunit ang paborito”)
|--------------5-----5--------------------------------|
|--------5--------------------------------------------|
|-2345~---54~---43~---32~-----------------------------|
|-----------------------------------------------------|



Pre-Chorus x2
|-----------------------------------------------------|
|-----------------------------------------------------|
|----------------------------------------55-----------|
|-00000000-33333333-55555555--00-33--55---------------|


Chorus
|-----------------------------------------------------|
|-----------------------------------------------------|
|-----------------------------------------------------|
|-33333333/555555555/8888888/33333333-----------------|



|-----------------------------------------------------|
|-----------------------------------------------------|
|-----------------------------------------------------|
|-33333333/555555555/8888888/3------------------------|

Verse
Pre Chorus
Chorus
Yung bass sa solo sa chorus yun
            
Tabs too difficult? Try these video lessons and learn fast.


comments powered by Disqus
↑ Back to top | Tablatures and chords are parodies/interpretations of the original songs. You may use it for private study, scholarship, research or language learning purposes only