» » »

Ang Huling El Bimbo Bass tabs (ver.2)

Artists:  A B C D E F G H I J K L M N O P Q R S T U V W X Y Z # 

Ang Huling El Bimbo Bass tabs (ver.2)

Eraserheads
Rating:
0/5 (0 votes)

Hard to play? Try these video lessons and learn fast.
                -----------------------------------------------------------------------------
Ang Huling El Bimbo - Eraserheads
-----------------------------------------------------------------------------


Tuning: Standard

Intro:

G|--------------------------------------------------------------------------|
D|--------------------------------------------------------------------------|
A|-6/9~-----6/9~-----6/9~---------------------------------------------------|
E|------7~-------9~-------7~--3-3-3-3-3-3-3-3-6-6-6-6-6-6-6-6-9-9-9-9-9-9-9-|

G|------|
D|------|
A|------|
E|-9-9~-|

Verse 1: “Ngunit ang paborito ay pagsayaw mo ng El Bimbo…”

G|---------------------------------------|
D|---------------------------------------|
A|-4~--2-4~--9\3-3~--6-------------------|
E|---------------------7--2-4~--4-6~--9~-|

Refrain: “Pagkagaling sa skwela ay didiretso na sa inyo…”

G|--------------------------------------------------------------------------|
D|--------------------------------------------------------------------------|
A|-7-7-7-7-7-7-7-10-10-10-10-10-10-10-10-7-7-7-7-7-7-7-7-9-9-9-9-9-9-9-9-9--|
E|--------------------------------------------------------------------------|

G|--------------------------------------------------------------------------|
D|--------------------------------------------------------------------------|
A|-10-10-10-10-10-10-10-10-7-7-7-7-7-7-7-7-9-9-9-9-9-9-9-10-10-10-10-10-10--|
E|--------------------------------------------------------------------------|

G|-------------------------------------------------------|
D|-------------------------------------------------------|
A|-10-10-12-12-12-12-12-12-12-12-12-12-12-12-12-12-12-12-|
E|-------------------------------------------------------|

Chorus: “Magkahawak ang ating kamay at walang kamalay – malay na tinuruan mo ang puso ko
umibig ng tunay…”

G|---------------------------------------6-6-6-6-6-6-6-6----------------------|
D|-5-5-5-5-5-5-5-------6-6-6-6-6-6-6-6-4-----------------6-6-6-6-6-6-4-4--4---|
A|---------------4/7----------------------------------------------------------|
E|-------------------5--------------------------------------------------------|
G|----------------------------------------------------------------------------|
D|-4-4-4-4-4-------------------------8-8-8-8-8-8-8-8--------------------------|
A|-----------4/7---9-9-9-9-9-9-9-9-6-----------------9~-----------------------|
E|---------------4------------------------------------------------------------|

Verse 2: “Naninigas ang aking katawan nang umikot na ang plaka…”

G|--------------------------------------------------------------------------|
D|--------------------------------------------------------------------------|
A|-10\4-4—-9\3-3—-8\2-2----------3-5-7—-9\3—-8\2—-4----------------2-1------|
E|----------------------3—0h3-3---------------------6-5-3-1—-0h1-3------3-5-|

G|--------------------------------------------------------------------------|
D|--------6-4/5-3-------------------------------------------4/6-4--4-4-4-4--|
A|------4----------5----3-4-5-------------3-1------2--2-3-5-----------------|
E|-7—-6---------------4--------6--0-0-1-2------3-4--------------------------|

G|-------|
D|-4-4-4-|
A|-------|
E|-------|

(Repeat Refrain Then Chorus)

G|------------------------------------|
D|-6-6-7-8----------------------------|
A|----------6/9~-----6/9~-----6/9~----|
E|---------------7~-------9~-------7~-|

“Balita ko may anak ka na ngunit walang asawa…”

G|----------10\5-5~--9\3-3~-------------------------------------------------|
D|----8-10--------------------------------------------4-6-6-6-6-6-----2-4-4-|
A|-10-----------------------------------------------------------------------|
E|---------------------------3-6-9--6-8--4-7--7-6--5---------------2--------|

G|-----------------------------------------|
D|-4-4-4-4---------------------------------|
A|-----------------------------------------|
E|---------2-2-2-2-2-2-2-2-3-3-3-3-3-3-3-3-|

Chorus: “Magkahawak ang ating kamay at walang kamalay – malay na tinuruan mo ang puso ko
umibig ng tunay…”

G|-------------------------------------6-6-6-6-6-6-6-6----------------------|
D|-----------------6-6-6-6-6-6-6-6-6-4-----------------6-6-6-6-6-6-4-4------|
A|-5-5-5-----4-5------------------------------------------------------------|
E|-------5-7-----7------------------------------------------------------3-3-|

G|--------------------------------------------------------------|
D|--------------------------------------------------------------|
A|-----------------------------3-3-3-3-3-3-3-3------------------|
E|-3-3-3-3-3-3-5-5-5-5-5-5-5-5-----------------3-3-3-3-3-3-3-3--|

“Magkahawak ang ating kamay at walang kamalay – malay na tinuruan mo ang puso ko 
na umibig ng tunay…”

G|----------------------------| Repeat this tab twice then…
D|----------------------------|
A|----6/9~----6/9~----6/9~----|
E|-7~------7~------9~------7~-|

G|---------------------------------------------------------------------| Repeat
D|---------------------------------------------------------------------| this tab
A|---------------------------------3-3-3-3-3-3-3-3---------------------| twice
E|-3-3-3-3-3-3-3-3-5-5-5-5-5-5-5-5-----------------3-3-3-3-3-3-3-3-----| then…

G|-------------------------------------------------------| Then…
D|-------------------------------------------------------|
A|-----------------------------------9-----4-4/14-0-5/21-|
E|-1-3-5-7~-7/9-7-7-9-7-4-8-8-8/10-8---4-4---------------|

G|---------------------------------------------------------------------| Repeat
D|---------------------------------------------------------------------| this tab
A|-----7-7-----7-7-----7-7-----7-7-----7-7-----7-7-----7-7-----7-7-----| thrice
E|-4-4-----4-4-----4-4-----4-4-----4-4-----4-4-----4-4-----4-4---------| then…

G|-----------------------------------------------------------------|
D|-----------------------------------------------------------------|
A|---------------------------------3-3-3-3-3-3-3-3-----------------|
E|-3-3-3-3-3-3-3-3-5-5-5-5-5-5-5-5-----------------3-3-3-3-3-3-3-3-|
            
Hard to play? Try these video lessons and learn fast. | Correct




comments powered by Disqus
↑ Back to top | Tablatures and chords are parodies/interpretations of the original songs. You may use it for private study, scholarship, research or language learning purposes only