» » »

Ang Huling El Bimbo Tabs (ver.1)

Artists:  A B C D E F G H I J K L M N O P Q R S T U V W X Y Z # 

Ang Huling El Bimbo Tabs (ver.1)

Eraserheads
Rating:
5/5 (9 votes)

Hard to play? Try these video lessons and learn fast.
                Artist/Band: Eraserheads

Intro: 

E|---3------5------8-------3-------|
B|---3------5------8-------3-------|
G|---0------0------0-------0-------|
D|---0------0------0-------0-------|
A|---2------4------7-------2-------| 2x
E|---3------5------8-------3-------|

Verse:
G-A7-C-G

Refrain:
Em-G-C-D

Chorus:
(Do Intro Chords)

Verse 2:
G-A7-C-G
 
Repeat Chorus

Bridge:
G-A7-C-G

Repeat Chorus 2x

E|-----------------------------------------|
B|-----------------------------------------|
G|-----------------------------------------|
D|-----------------------------------------|
A|----2-3-4-5-—5/7-4-0----0-2-3-5-5/7------| 2x
E|------------------------------------3----|
       La la la la...

E|-----------------------------------------|
B|-----------------------------------------|
G|-----------------------------------------|
D|-----------------------------------------|
A|----2-3-4-5-—5/7-4-0----0-2-3-5-5/7------| 
E|------------------------------------3----|

E|----------------------------------------------------------|
B|----------------------------------------------------------|
G|----------------------------------------------------------|
D|----------------------------------------------------------|
A|---2-3-4-5—-0h2---0h2---0h2---0h2----0h2----0h2--- > 12x--|
E|---------------3-3---3-3---3-3---3-3----3-3----3-3 >------|

E|--------------------------------------------------------------------------|
B|--------------------------------------------------------------------------|
G|--------------------------------------------------------------------------|
D|--------------------------------------------------------------------------|
A|-0h2---0h2---0h2---0h2---0h2---0h2---0h2---0h2---0h2---0h2---0h2---0h2----|
E|----3-3---3-3---3-3---3-3---3-3---3-3---3-3---3-3---3-3---3-3---3-3---3-3-|

E|------------------------------------------------------------|
B|------------------0-----0----------------------0-----0------|
G|------------0----------------------------0------------------|
D|------------------------------------------------------------|
A|----2-3-4-5---5-4---4-3---3-2----2-3-4-5---5-4---4-3---3-2--| 6x
E|------------------------------------------------------------|
            
Hard to play? Try these video lessons and learn fast. | Correct




comments powered by Disqus
↑ Back to top | Tablatures and chords are parodies/interpretations of the original songs. You may use it for private study, scholarship, research or language learning purposes only