>
 >
Torpedo

Torpedo Guitar Tabs

Eraserheads - Torpedo chords, tabs, tablatures, lyrics

Guitar lessons | Add/correct | Request | Top 50 tabs Artists:  A B C D E F G H I J K L M N O P Q R S T U V W X Y Z 0-9

Torpedo Guitar Tabs – Eraserheads

CD, Sheet music, Poster

Do you like Torpedo? Share with your friends now
Bass TabsChordsChords v2TabsTabs v2Ukulele
Tuning: Standard


INTRO:

   Csus
e|------3---------------|
B|----1-----------------| (repeat 8x)
G|---0-0----------------|
	
VERSE1:

   Csus
  Pasensya na
e|------3---------------|
B|----1-----------------| (repeat 4x)
G|---0-0----------------|

   D
  Kung ako ay
e|------2---------------|
B|----3-----------------| (repeat 4x)
G|---2-2----------------|

   Dm	 		G
  Di' nag
e|------1------------3-------|
B|----3----(2x)----3----(2x)-|
G|---2-2----------0-0--------|

   Csus
  Sasalita
e|------3---------------|
B|----1-----------------| (repeat 4x)
G|---0-0----------------|

   Csus
  Hindi ko kayang			 	 (2nd Guitarist comes in!)
e|------3---------------|			B|------8---------------|		
B|----1-----------------| (repeat 4x)	G|----5-----------------| (repeat 4x)
G|---0-0----------------|			D|---5-5----------------|
										
   D
  Sabihin				 	 (2nd Guit.)
e|------2---------------|			B|------7---------------|
B|----3-----------------| (repeat 4x) 	G|----7-----------------| (repeat 4x)
G|---2-2----------------|			D|---7-7----------------|

   Dm	         	G	
  Ang aking				 	 (2nd Guit.)
e|------1------------3-------|		B|------6------------8-------|
B|----3----(2x)----3----(2x)-|		G|----7----(2x)----7----(2x)-| 
G|---2-2----------0-0--------|		D|---7-7----------5-5--------|

   Csus
  Nadarama				 	 (2nd Guit.)
e|------3---------3-----|			B|------8---------8-----|
B|----1----(2x)---1-----| 			G|----5----(2x)---5-----| 
G|---0-0----------0-----|			D|---5-5----------5-----|	
	
RIFF:
A|-------------5--------| (Both guitarist play this 
E|---777-5-3-5----------|   riff with Distortion!)


CHORUS: (Play the entire chorus with distortion and in power chords!)
	
  A
H'wag mo na akong pilitin
  F			A
Ako ay walang lakas ng loob
	  	G
Para tumange  
  A
Walang dapat ipagtaka
  A#			E
Ako ay pinanganak na torpe
	  A   G
Sa ayaw at hinde/ D'yan sa tabe tabe


VERSE2: (Get along with the struming!)
Guitar#1 (Play this entire verse in higher chords!)
Guitar#2 (Play this entire verse in lower chords!)

 C
Pasensya na
 D
Kung ikaw ay naiinis
 Dm		
Ayoko na sanang pagusapan
 C
Pa
 C
Kung gusto mo ay
 D
Manood ka na lang ng sine
 Dm
Di'bat huwebes ngayon
 C
Baka may bago nang palabas


ADLIB: (Both guitarist play this!)
Guitar#1 (play without distortion)
Guitar#2 (play with distortion)

e|---------15--------15------15-------------|
B|-----13--------13------13--------13--13---|
G|---12--12--------12------12--------12-----|
	
e|---------14--------14------14-------------|
B|-----13--------13------13--------13--13---|
G|---11--11--------11------11--------11-----|

e|---------12--------12------12-------------|
B|-----13--------13------13--------13--13---|
G|---10--10--------10------10--------10-----|

B|-----------13--------13------13--------13---|
G|-----------------12------12--------12-------|
D|---14/15/14--------14------14--------14-----|


REPEAT RIFF:
REPEAT CHORUS:

VERSE3:
Guitar#1 (Play the entire verse in higher chords!)
Guitar#2 (Play the half of the verse in lower chords!)

   C
  Pasensya na
   D
  Kung ako ay naiiyak
   Dm			
  Mababaw lang talaga ang 
   C
  Luha ko 
   C
  Di'ko mapigil
 (2nd Guit.)
e|---------15--------15------15-------------|
B|-----13--------13------13--------13--13---|
G|---12--12--------12------12--------12-----|

   D
  Ang aking damdamin
 (2nd Guit.)
e|---------14--------14------14-------------|
B|-----13--------13------13--------13--13---|
G|---12--12--------12------12--------12-----|

   Dm
  Puwede bang umalis ka na't
 (2nd Guit.)
e|---------12--------12------12-------------|
B|-----13--------13------13--------13--13---|
G|---12--12--------12------12--------12-----|

  C
  Tumutunog na ang beeper mo
 (2nd Guit.)
B|---------13--------13------13-------------|
G|-----12--------12------12--------12--12---|
D|---14--14--------14------14--------14-----|


BRIDGE1: 
GUITAR#2: (Repeat 2nd guitar riffs in verse3!)

   Csus
  Pasensya na
 (1st Guit. w/dist.)
e|-------3-3--3-3--3-3-----|
B|----1--1-1--1-1--1-11---|
G|---0-0-----0----0----0---|

    D
  Ha..ha..ha.ha....
 (1st Guit. w/dist.)
e|-------2-2---------------|
B|----3--3-3--3---(2x)-----|
G|---2-2-----2-------------|

   Dm		
  Huhhh..huhh.huh.huh.huh
 (1st Guit. w/dist.)
e|-------1-1--1-1--1-1-----|
B|----3--3-3--3-3--3-3--3--|
G|---2-2-----2----2----2---|

   Csus
  huhhh...
 (1st Guit. w/dist.)
e|-------3-3--3-3--3-3-----|
B|----1--1-1--1-1--1-1-----|
G|---0-0-----0----0----0---|

	
	
BRIDGE2:
GUITAR#1 (Get along with the strumming, Play this in higher chords and with
	    dist.!)       
GUITAR#2 (Repeat 2nd guitar riffs in verse3!)
	 
   C
  Tut tut tut tuu...
   D
  Tut tut tut tuu...
   Dm
  Tut tut tut tuu...
   C
  Tut tuu...Tut tuu.

	
OUTRO:
GUITAR#1 (Play this w/o dist.)
GUITAR#2 (Play this w/ dist.)

e|---------12----12------13----13-----------------------------------|
B|-----13----13----13------13----1313---------13-------------------|
G|---10--10----10------10----10----10------12----1212--------------|
D|---------------------------------------14--14----14---14b/10~~~---|
	
	
(That's all, I know this is not accurate, I'm just a beginner, but I'll assure   
 you'll get along. TY!)
(/no1!!!)





Comments


Popular Eraserheads tabs & chords
Huwag Mo Nang Itanong 2 Bass Tabs
Tamagotchi Baby Bass Tabs
Tindahan Ni Aling Nena 2 Bass Tabs
Buses And Trains Chords
Hoinky-Toinks Granny Chords
Kahit Ano Chords
Kama Supra Chords
Tollgate 1 Chords
Alapaap Intro 1 Tabs
Balikbayan Box (Intro Ver 2) Tabs


Song lyrics



↑ Back to top | Tablatures and chords are parodies/interpretations of the original songs. You may use it for private study, scholarship, research or language learning purposes only
© 2014 AZChords.com Contact us | Privacy policy | DMCA | Add/correct tabs | Request tabs | Top 50 tabs