» » »

Eagles Of Death Metal, Wannabe In L.A Tabs (ver.3)

Artists:  A B C D E F G H I J K L M N O P Q R S T U V W X Y Z # 

Wannabe In L.A Tabs (ver.3)

Eagles Of Death Metal Tabs
Rating:
0/5 (0 votes)
Hard to play? Try these video lessons and learn fast.
                Eagles of Death Metal - Wannabe in L.A.
Tuning: Open G GGDGBD 

Play loud with fuzz.
Intro isn't guitar but added what I play anyway.


PM any questions/corrections thanks, rate please.

KEY
x  - mute
b  - bend
r  - release
~  - vibrato
qb - quick bend
pb - pre-bend

----------------------------------------------

#Intro 
(Played freting lightly to make muted note)
d|-----18-----18-18-18-----|
B|---18-----18--------18---|:
G|-18-----18------------18-|
D|-------------------------|
G|-------------------------|:
G|-------------------------|x2

d|-----18-----18------18-18-18-----|
B|---18-----18------18--------18---|:
G|-18-----18------18------------18-|
D|---------------------------------|
G|---------------------------------|:
G|---------------------------------|x2

d|-----18-----18------18-------|
B|---18-----18------18---------|
G|-18-----18------18-----18-18-|
D|-----------------------------|
G|-----------------------------|
G|-----------------------------|

----------------------------------------------

#Main Riff
d|-------------------------------|
B|-------------------------------|:
G|-------------------------------|
D|-3-3h5/8-6-6h8/10-10-8-10-10-8-|
G|-3-3-3/6-6-6-6/8--8--8-8--8--8-|:
G|-3-3-3/6-6-6-6/8--8--8-8--8--8-|

#Main Riff Variation
d|-------------------------------|
B|-------------------------------|:
G|-----------------------11-11---|
D|-3-3h5/8-6-6h8/10-10-8-8--8--8-|
G|-3-3-3/6-6-6-6/8--8--8-8--8--8-|:
G|-3-3-3/6-6-6-6/8--8--8-8--8--8-|

#Main Riff Turnaround
d|-----------------------------|
B|-----------------------------|:
G|-----------------------------|
D|-3-3-6-6-8-8-7-6-6-6h8-6h9-6-|
G|-3-3-6-6-8-8-7-6-6-6-6-6-6-6-|:
G|-3-3-6-6-8-8-7-6-6-6-6-6-6-6-|

#Solo
d|-------------------------|
B|-------------------------|
G|---15--15-13-------------|
D|/15----------15~~15~~15--|
G|-------------------------|
G|-------------------------|

d|------------------------------------|
B|------------------------------------|
G|--------------13--------------------|
D|--------13-15----13b-13b-11-13b-11/-|
G|--13-15-----------------------------|
G|------------------------------------|

d|--------------------15------------------|
B|-14b-14b-14b-14b-14b---14--14-----------|
G|------------------------------15--13h15-|
D|----------------------------------------|
G|----------------------------------------|
G|----------------------------------------|

d|-------------18b----------------------|
B|----------------18----18\4-4h6p4------|
G|-18-18-18-18-------18------------6-3~-|
D|--------------------------------------|
G|--------------------------------------|
G|--------------------------------------|

#Rhythm Riff (Actually played on a Bass)
d|---------------------|
B|---------------------|:
G|---------------------|
D|-8-8-8-8\6-----------|
G|-----------8-8-8-8\6-|:
G|---------------------|

#Ending Riff
d|--------------------------|
B|--------------------------|:
G|--------------------------|
D|-3-3h5-3h6-3-6-6h8-6h9-6\-|
G|-3-3-------3/6-6-------6\-|:
G|-3-3-------3/6-6-------6\-|x2

d|--------------|  |---|
B|--------------|: |---|
G|--------------|  |---|
D|-6-6h8p6h9h6--|  |-3-|
G|-6-6----------|: |-3-|
G|-6-6----------|x3|-3-|
            

comments powered by Disqus
↑ Back to top | Eagles Of Death Metal Tabs for Wannabe In L.A. Lyrics for acoustic guitar and electric guitar. Tablatures and chords are parodies/interpretations of the original songs. You may use it for private study, scholarship, research or language learning purposes only