» » »

Eagles Of Death Metal, Wannabe In L.A Tabs (ver.1)

Artists:  A B C D E F G H I J K L M N O P Q R S T U V W X Y Z # 

Wannabe In L.A Tabs (ver.1)

Eagles Of Death Metal Tabs
 Rating:
4/5 (4 votes)
Wannabe In L.A lessons Tabs too difficult? Try these video lessons and learn fast
1
                ----------------------------------------------------------------------------
                Wannabe in L.A. - Eagles of Death Metal
----------------------------------------------------------------------------

Tuning: Regular EODM Tuning, Low to high GGDGBd

Main Riff(Pretty much the whole song)

d|-------------------------------------------------------------------------|
B|-------------------------------------------------------------------------|
G|-------------------------------------------------------------------------|
D|---3-3h5/8-6h8/10-10-8-10-8-10-8-8-\-3-3h5/8-6h8/10-10-8-10-8-10-8-8-\---|
G|---3-3-3/6-6-6/8--8--8-8--8-8--8-8-\-3-3-3/6-6-6/8--8--8-8--8-8--8-8-\---|
G|---3-3-3/6-6-6/8--8--8-8--8-8--8-8-\-3-3-3/6-6-6/8--8--8-8--8-8--8-8-\---|

Repeat a few times.

d|-------------------------------------------------------------------------|
B|-------------------------------------------------------------------------|
G|-------------------------------------------------------------------------|
D|---3-3h5/8-6h8/10-10-8-10-8-10-8-8-8-8-8-7-7-7-6-8-6-9-6-8-6-9-6-\-------|
G|---3-3-3/6-6-6/8--8--8-8--8-8--8-8-8-8-8-7-7-7-6-6-6-6-6-6-6-6-6-\-------|
G|---3-3-3/6-6-6/8--8--8-8--8-8--8-8-8-8-8-7-7-7-6-6-6-6-6-6-6-6-6-\-------|
                                                                    ^
Back to the main riff where the ^ is

He throws in a few extra of these at the begging of those riffs every once in a while.

D|---3-3-3-|
G|---3-3-3-|
G|---3-3-3-|

"Really wanna be, really wanna be,..., In L.A."

d|-------------------------------------------------------------------------|
B|-------------------------------------------------------------------------|
G|-------------------------------------------------------------------------|
D|---6-6-8-6-9-6-6-6-8-6-9-6-6-6-8-6-9-6-6--3------------------------------|
G|---6-6-6-6-6-6-6-6-6-6-6-6-6-6-6-6-6-6-6--3------------------------------|
G|---6-6-6-6-6-6-6-6-6-6-6-6-6-6-6-6-6-6-6--3------------------------------|
 Some of these a few times          and     ^ Make that BIG


That's pretty much it.
and rhythym will definately help.
And I don't have a good ear for solos, but i'll work on it unless somebody can do it in 
right tuning (Please?).


| /  slide up
| \  slide down
| h  hammer-on
============================================================================
            
Submit corrections

comments powered by Disqus
↑ Back to top | Eagles Of Death Metal Tabs for Wannabe In L.A. Lyrics for acoustic guitar and electric guitar. 1 Tablatures and chords are parodies/interpretations of the original songs. You may use it for private study, scholarship, research or language learning purposes only