» » »

Wannabe In L.A Tabs (ver.2)

Artists:  A B C D E F G H I J K L M N O P Q R S T U V W X Y Z # 

Wannabe In L.A Tabs (ver.2)

Eagles Of Death Metal
Rating:
0/5 (0 votes)

Tabs too difficult? Try these video lessons and learn fast.
                Wannabe In L.A by Eagles Of Death Metal


INTRO/VERSE                x6  
e---------------------------|
B---------------------------|
G--3-3-3-6-6-6-8-6-8-6-8-6--|
D--3-3-3-6-6-6-8-6-8-6-8-6--|
A--1-1-1-4-4-4-6-4-6-4-6-4--|
E---------------------------|

CHORUS
e----------------------------------------------|
B----------------------------------------------|
G--3-3-3-6-6-6-8-8-8-7-7-7-8-6-8-6-8-6-10-6\3--|
D--3-3-3-6-6-6-8-8-8-7-7-7-8-6-8-6-8-6-10-6\3--|
A--1-1-1-4-4-4-6-6-6-5-5-5-6-4-6-4-6-4-8--4\1--|
E----------------------------------------------|

SOLO 0.52
e------------------------------------------------------6---------------9-6-|
B--------------------------------------------------6-9---9p6-------6-9-----|
G------6-8p6----------6-8/10-6----8br-6----6-8br-6-----------8-6-8---------|
D--6h8-------8-8--6-8-----------8--------8---------------------------------|
A--------------------------------------------------------------------------|
E--------------------------------------------------------------------------|

SOLO cont.
e----------------|
B--9-6-----------|
G------8br-6-----|
D------------8~--|
A----------------|
E----------------|

1.23                              
e---------------------------------|
B---------------------------------|
G---------------------------------|
D---------------------------------|
A--13-13-13-13\11-----------------|
E------------------11-11-11-11\9--|

Any corrections please comment
Thanks
            
Tabs too difficult? Try these video lessons and learn fast.




comments powered by Disqus
↑ Back to top | Tablatures and chords are parodies/interpretations of the original songs. You may use it for private study, scholarship, research or language learning purposes only