» » »

Wannabe In L.A Bass tabs (ver.2)

Artists:  A B C D E F G H I J K L M N O P Q R S T U V W X Y Z # 

Wannabe In L.A Bass tabs (ver.2)

Eagles Of Death Metal
Rating:
0/5 (0 votes)

Hard to play? Try these video lessons and learn fast.
                Eagles of death metal
Wannabe in LA
Gilgamesh3rd
Bass

this is the first single and second track of the new album "heart on" 
this is my first tab so i would apreciate feedback


Intro/Verse:
alternate between the two at your pleasure

G|----------------------------------------------------------------|
D|----------------------------------------------------------------|
A|---------4-4---4-6-6-6-4-6\8-6-4--------------------------------|
E|-6-6-4-6-----6--------------------------------------------------|

G|----------------------------------------------------------------|
D|-8-8-6----------------------------------------------------------|
A|-------8-4-4---4-6-6-6-4-6\8-6-4--------------------------------|
E|-------------6--------------------------------------------------|

during "make me say" 

G|----------------------------------------------------------------|
D|-8-8-6----------------------------------------------------------|
A|-------8-4-4---4-6-6-6-6-5-5-5-5-4-4-4-4-4-4-4-4----------------|
E|-------------6--------------------------------------------------|

Synth Bridge:

G|--------------|
D|--------------|
A|--------------| strike with each mesure
E|------6-------|

End:

G|----------------------------------------------------------------|
D|----------------------------------------------------------------|
A|-----------------4-4-4-4-4-4-4-4----------------4-4-4-4-4-4-4-4-|
E|-6-6-6-6-6-6-6-6-----------------6-6-6-6-6-6-6-6----------------|

G|------------------------------------------|
D|------------------------------------------|
A|-4-4-4-4-4---4-4-4-4-4---4-4-4-4-4--------|
E|------------------------------------6~~~~-|
            
Hard to play? Try these video lessons and learn fast. | Correct




comments powered by Disqus
↑ Back to top | Tablatures and chords are parodies/interpretations of the original songs. You may use it for private study, scholarship, research or language learning purposes only