» » »

Eagles Of Death Metal, Dont Speak Tabs (ver.1)

Artists:  A B C D E F G H I J K L M N O P Q R S T U V W X Y Z # 

Dont Speak Tabs (ver.1)

Eagles Of Death Metal Tabs
 Rating:
4/5 (4 votes)
Dont Speak lessons Tabs too difficult? Try these video lessons and learn fast
1
                Eagles of Death Metal - Don't Speak
Tuning: Open G GGDGBD - Capo Third Fret


Solo updated.

PM any questions/corrections thanks, rate please.

KEY
x  - mute
b  - bend
r  - release
qb - quick bend
pb - pre-bend

#Intro
Guitar 1
d|-----------------------------------|
B|-----------------------------------|
G|-----------------------------------|
D|------3--3--3x---3--3--3x----3x-3x-|
G|------3--3--3x---3--3--3x----3x-3x-|
G|------3--3--3x---3--3--3x----3x-3x-|
Guitar 2
d|-----------------------------------|
B|-----------------------------------|
G|-----------------------------------|
D|-----15-15-15x--15-15-15x---15x15x-|
G|-----15-15-15x--15-15-15x---15x15x-|
G|-----15-15-15x--15-15-15x---15x15x-|

#Main Riff
d|-------------------------------------|
B|-------------------------------------|:
G|-------------------------------------|
D|-------------------------------------|
G|-3-3--3-6-8b9r8-6-3-6-8b9r8-6-3-6-3--|:
G|-3-3--3-6-8b9r8-6-3-6-8b9r8-6-3-6-3--|x4

#Verse Riff
Guitar 1
d|---------------------------------------|
B|---------------------------------------|
G|---------------------------------------|
D|-3--3-3x---3--3-3x---3--3-3x---3--3-3x-|
G|-3--3-3x---3--3-3x---3--3-3x---3--3-3x-|
G|-3--3-3x---3--3-3x---3--3-3x---3--3-3x-|
Guitar 2
d|------------------------------------------|
B|------------------------------------------|
G|------------------------------------------|
D|15-15-15x--15-15-15x--15-15-15x--15-15-15x|
G|15-15-15x--15-15-15x--15-15-15x--15-15-15x|
G|15-15-15x--15-15-15x--15-15-15x--15-15-15x|

#Main Riff

#Verse Riff (Guitar Two)

#Main Riff

#Break (Laughing)

#Solo (Guitar One)

d|-------------------------------------------|
B|-------------------------------------------|
G|--------16------18b-18b-18b~~~16h18-18~~~~~|
D|-16b~~~r----16b----------------------------|
G|-------------------------------------------|
G|-------------------------------------------|

d|-------------------------------------------|
B|-------------------------------------------|
G|-------------------------------------------|
D|-14~~-14----------11-14-12p11 12p11--------|
G|--------14--12-14-------------------14~~~--|
G|-------------------------------------------|

d|-------------------------------------------|
B|-------------------------------------------|
G|-13-13--13-13-13---------------------------|
D|-----------------13br------8-6-3-----------|
G|---------------------------------8-6-3-3-3-|
G|---------------------------------------3-3-|

#Solo (Guitar Two)
d|-------------------------------------------|
B|-------------------------------------------|:
G|-------------------------------------------|
D|-------------------------------------------|
G|-6-6--6-9-11b12r11-9-6-9-11b12r11-9-6-9-6--|:
G|-6-6--6-9-11b12r11-9-6-9-11b12r11-9-6-9-6--|x2

d|-------------------------------------|
B|-------------------------------------|:
G|-------------------------------------|
D|-------------------------------------|
G|-3-3--3-6-8b9r8-6-3-6-8b9r8-6-3-6-3--|:
G|-3-3--3-6-8b9r8-6-3-6-8b9r8-6-3-6-3--|x2

#Breakdown (Guitar One)
d|-------------------------------------------|
B|-----------------------24\\----------------|
G|----------------------------21\\-----------|
D|--------8p6--------------------19\\/-------|
G|-6~~~~~-----8p6--------------------\\///3--|
G|-----------------3dive3--------------------|

#Breakdown (Guitar Two)
d|---------|
B|---------|:
G|---------|
D|-3--3-3x-|
G|-3--3-3x-|:
G|-3--3-3x-|x10

#Main Riff x2
            
Submit corrections

comments powered by Disqus
↑ Back to top | Eagles Of Death Metal Tabs for Dont Speak. Lyrics for acoustic guitar and electric guitar. 1 Tablatures and chords are parodies/interpretations of the original songs. You may use it for private study, scholarship, research or language learning purposes only