» » »

Eagles Of Death Metal, Wannabe In L.A Bass tabs (ver.1)

Artists:  A B C D E F G H I J K L M N O P Q R S T U V W X Y Z # 

Wannabe In L.A Bass tabs (ver.1)

Eagles Of Death Metal Tabs
 Rating:
4/5 (4 votes)
Wannabe In L.A lessons Tabs too difficult? Try these video lessons and learn fast
1
                play it fast and constant with a bit of nice, slightly psychedelic fuzz.
MAIN RIFF (part 1)
G|----------------------------------|
D|--8-8-8-6-------------------------|
A|------------------6-6-6---6-8-6---| repeat as necessary
E|----------9-9-9-6-------9-------9-|

MAIN RIFF (part 2)
G|--------------------------------------------------|
D|--8-8-8-6-------------------------------6-8-6-----|
A|------------------6-6-6-6-5-5-5-5-4-6-8-------8---|
E|----------9-9-9-6-------------------------------6-|

Here's the really hard part...
SOLO BACKING
G|------------------------------------------------------|
D|------------------------------------------------------|
A|------------------------------------------------------|
E|--6-------------------------6-------------------------|

Then back in to the main riff

OUTRO
G|----------------------------------|
D|------------------------6-8-6-----|
A|------------------4-6-8-------8---| it does this twice, but 
E|--6-6-6-6-6-6-6-6-----------------| half way through the second,
                                      do the next part instead.

G|-----------------------------------------------|
D|--------6-8-----------6-8-----------6-8-6------|
A|--4-6-8---------4-6-8---------4-6-8-------8----|
E|--------------------------------------------6--|

There you have it, and because it's perfect, rate 5*'s...please...
            
Submit corrections

comments powered by Disqus
↑ Back to top | Eagles Of Death Metal Bass for Wannabe In L.A. Lyrics for acoustic guitar and electric guitar. 1 Tablatures and chords are parodies/interpretations of the original songs. You may use it for private study, scholarship, research or language learning purposes only