>
 >
I Want You So Hard Boys Bad News 3

I Want You So Hard Boys Bad News 3 Guitar Tabs

Eagles Of Death Metal - I Want You So Hard Boys Bad News 3 chords, tabs, tablatures, lyrics

Guitar lessons | Add/correct | Request | Top 50 tabs Artists:  A B C D E F G H I J K L M N O P Q R S T U V W X Y Z 0-9

I Want You So Hard Boys Bad News 3 Guitar Tabs – Eagles Of Death Metal

CD, Sheet music, Poster

Do you like I Want You So Hard Boys Bad News 3? Share with your friends now
Tabs
----------------------------------------------------------------------------
                I want you so hard - Eagles of death metal
----------------------------------------------------------------------------

Tuning: Standard tuning

 Updates:

  Solo updated and added 16/12/08


This is my first tab but i think i have got it right

Intro
e|------------------------|
B|------------------------|
G|------------------------|     x 8
D|------------5-----------|
A|-0-0-0-0-0--0-----------|
E|-0-0-0-0-0--0-----------|

e|------------------------|
B|------------------------|
G|------------5-----------| dont know how many times you play that section
D|-7-7-7-7-7--0-----------|
A|-0-0-0-0-0--0-----------|
E|-0-0-0-0-0--0-----------|

Drum fill comes in:

e|------------------------|
B|------------------------|
G|------------5-----------| dont know how many times you play that section
D|-7-7-7-7-7--0-----------|
A|-0-0-0-0-0--0-----------|
E|-0-0-0-0-0--0-----------|

e|------------------------|
B|------------------------|
G|------------------------|     x 8
D|------------5-----------|
A|-0-0-0-0-0--0-----------|
E|-0-0-0-0-0--0-----------|

e|------------------------|
B|------------------------|
G|------------5-----------| dont know how many times you play that section
D|-7-7-7-7-7--0-----------|
A|-0-0-0-0-0--0-----------|
E|-0-0-0-0-0--0-----------|

Drum fill comes in:

e|------------------------|
B|------------------------|
G|------------5-----------| dont know how many times you play that section
D|-7-7-7-7-7--0-----------|
A|-0-0-0-0-0--0-----------|
E|-0-0-0-0-0--0-----------|

     SOLO
E------------------------------------------------------------------|
B------------------------------------------------------------------|
G------------------------------------------------------------------|
D------------------------------------------------------------------|
A------5--/---12--12--12---12---12-----12---12---12--15--12--------|
E-------------------------------------------12---------------------|

E------------------------------------------------------------------|
B----------------------BU--------------17--------------------------|
G-------------17------17(19)----17----(19)-------------------------|
D-------14----------------------------------BD---------------------|
A--15--------------------------------------------------------------|
E------------------------------------------------------------------|

E---------------------------------------------------------------------|
B---BD----17-------------BU---BD--------------------------------------|
G-----17-------17--17---(18)--(17)--14----14--------------------------|
D---------------------------------------------------------------------|
A---------------------------------------------------------------------|
E---------------------------------------------------------------------|

E---------------------------------------|
B---------------BD----------------------|
G--14---14---(15)(14)---14--14--14------|
D---------------------------------------|
A---------------------------------------|
E---------------------------------------|

E------------------------------------------------|
B------------------------------BD---------17-----|
G--(15)(14)---14--14-14-14--(18)--(17)-----------|
D------------------------------------------------|
A------------------------------------------------|
E------------------------------------------------|

E--------------------------------------------------|
B-----BD-------------------------------------------|
G--(18)(17)-14------------BD-----------------------|
D---------------17-----(18)(17)---14--17--17-------|
A-------------------0------------------------------|
E--------------------------------------------------|

E----------------------------------------------------|
B----------------------------------------------------|
G---------------14--17--14--17--17-------------------|
D--17--14--17----------------------------------------|
A----------------------------------------------------|
E----------------------------------------------------|

E-----------------------------------------|
B-----------------------------------------|
G--17--14----------17--14----------17-----|
D----------17--x-----------17--14---------|
A-----------------------------------------|
E-----------------------------------------|

E---------------------------------------|
B---------------------------------------|
G--17--14--------17--14-----------------|
D----------17--x--------17--14----------|
A---------------------------------------|
E---------------------------------------|

E----------------------------------------------------------|
B---------------------BU-----------------------------------|
G-17--14------14---17-17(18)----17--14--17--14-------------|
D---------17-----------------------------------------------|
A----------------------------------------------------------|
E----------------------------------------------------------|

E------------------------------------------------------------------------|
B-----BU--------BU--------BU------BU--BD---------------------------------|
G--17--(18)----17(18)---17(18)--17(18)----(17)17(18)--(17)--14--17---14--|
d------------------------------------------------------------------------|
A------------------------------------------------------------------------|
E------------------------------------------------------------------------|

E---------------------------------------------------------------------|
B----BU----18---------BU--BD------------------------------------------|
G--17(18)-------17--17-19----(17)--14--17---14------------------------|
D---------------------------------------------------------------------|
a---------------------------------------------------------------------|
E---------------------------------------------------------------------|

E-------------------------------------------------|
B---------BU-------BU--BD-------------------------|
G--17--14----(15)-17(19)(17)---14--17--17---------|
D-------------------------------------------------|
A-------------------------------------------------|
E-------------------------------------------------|

E----------------------------------------|
B----------------------------------------|
G--17--17--14----------------------------|
D-------------17--14--14--17---17-17-17--|
A----------------------------------------|
E----------------------------------------|

E----------------------------------|
B----------------------------------|
G----------------------------------|
D---17---17-17-17-17-15-15-17------|
A----------------------------------|
E-----------------------------14/--|

The rythem behind the solo

e|------------------------|
B|------------------------|
G|------------------------|     x 8
D|------------5-----------|
A|-0-0-0-0-0--0-----------|
E|-0-0-0-0-0--0-----------|

e|------------------------|
B|------------------------|
G|------------5-----------| dont know how many times you play that section
D|-7-7-7-7-7--0-----------|
A|-0-0-0-0-0--0-----------|
E|-0-0-0-0-0--0-----------|

e|------------------------|
B|------------------------|
G|------------------------|     x 8
D|------------5-----------|
A|-0-0-0-0-0--0-----------|
E|-0-0-0-0-0--0-----------|

e|------------------------|
B|------------------------|
G|------------5-----------| dont know how many times you play that section
D|-7-7-7-7-7--0-----------|
A|-0-0-0-0-0--0-----------|
E|-0-0-0-0-0--0-----------|

    
e|------------------------|
B|------------------------|
G|------------------------|     x 8
D|------------5-----------|
A|-0-0-0-0-0--0-----------|
E|-0-0-0-0-0--0-----------|

e|------------------------|
B|------------------------|
G|------------5-----------| dont know how many times you play that section
D|-7-7-7-7-7--0-----------|
A|-0-0-0-0-0--0-----------|
E|-0-0-0-0-0--0-----------|

Drum fill comes in:

e|------------------------|
B|------------------------|
G|------------5-----------| dont know how many times you play that section
D|-7-7-7-7-7--0-----------|
A|-0-0-0-0-0--0-----------|
E|-0-0-0-0-0--0-----------|

Outro:

e|------------------------|
B|------------------------|
G|------------------------|   repeat this till end of the song
D|------------5-----------|
A|-0-0-0-0-0--0-----------|
E|-0-0-0-0-0--0-----------|

So there u go enjoy the tab
If you have any comments or corrections send them in 
I hope its right





Comments


Popular Eagles Of Death Metal tabs & chords
Cherry Cola 1 Bass Tabs
Now I'm A Fool Chords
Chase The Devil Intro Tabs
Cheap Thrills 1 Tabs
Flames Go Higher 2 Tabs
I Only Want You Tabs
So Easy 1 Tabs
Stacks O' Money Tabs
Wanna Be In La Tabs
San Berdoo Sunburn Ukulele


Song lyrics



↑ Back to top | Tablatures and chords are parodies/interpretations of the original songs. You may use it for private study, scholarship, research or language learning purposes only
© 2014 AZChords.com Contact us | Privacy policy | DMCA | Add/correct tabs | Request tabs | Top 50 tabs