>
 >
I Want You So Hard (Boy's Bad News) 1

I Want You So Hard (Boy's Bad News) 1 Guitar Tabs

Eagles Of Death Metal - I Want You So Hard (Boy's Bad News) 1 chords, tabs, tablatures, lyrics

Guitar lessons | Add/correct | Request | Top 50 tabs Artists:  A B C D E F G H I J K L M N O P Q R S T U V W X Y Z 0-9

I Want You So Hard (Boy's Bad News) 1 Guitar Tabs – Eagles Of Death Metal

CD, Sheet music, Poster

Do you like I Want You So Hard (Boy's Bad News) 1? Share with your friends now
Bass TabsBass Tabs v2TabsTabs v2Tabs v3

Tuning:standard
VERSES            X8
e|-------------------|---------------------|-------------------|
B|---2-2-2-2-2-5---5-|--7-7-7-7-7-5---5----|-7-7-7-7-7-5--5--2-|
G|.--2-2-2-2-2-5---5.|.-7-7-7-7-7-5---5--0-|-7-7-7-7-7-5--5--2-|
D|.--2-2-2-2-2-5---5.|.-7-7-7-7-7-5---5--0-|-7-7-7-7-7-5--5--2-|
A|---0-0-0-0-0-3---3-|--5-5-5-5-5-3---3--0-|-5-5-5-5-5-3--3--0-|
E|-------------------|---------------------|--------------3--0-|
VERSES                              1st rpt                        2nd rpt 
e|-------------------|---------------------|-------------------------------|
B|--2----------------|---------------------|-------------------------------|
G|.-2----------------|--------------------.|-------------------------------|
D|.-2----------------|--------------------.|-------------------------------|
A|--0----------------|---------------------|-------------------------------|
E|-------------------|---------------------|---------------------1\--------|
SOLO   0:48
e|----------------------|-------------------------------|------------------|
B|----------------------|-------------------------------|------------bu----|
G|----------------------|-------------------------------|-------17-17--19--|
D|----------------------|-------------------------------|----14------------|
A|---5/12-12-12--12--12-|-12--12--12--15---12---15---12-|-15---------------|
E|----------------------|-----12------------------------|------------------|

e|--------------------------------------------|----------------------------|
B|-----17-----17-------bu--bd-----------------|--------------------------bu|
G|-17--19--17-----17-17--18--17--14---14~~~~--|--14--14--15--14--14-14-14--|
D|---bu--bd-----------------------------------|--------bu--bd--------------|
A|--------------------------------------------|----------------------------|
E|--------------------------------------------|----------------------------|
                                     pb 17           pb 17
e|---------------------------------|---------------------------------------|
B|---bd----------------bu--bd---17-|---bd----------------------------------|
G|-15--14--14-14-14-14---18--17----|-18--17--14----------bd----------------|
D|---------------------------------|-------------17----18--17-14-17-17-----|
A|---------------------------------|-----------------0---------------------|
E|---------------------------------|---------------------------------------|

e|--------------------------|---------------------------|------------------|
B|--------------------------|---------------------------|------------------|
G|------------14-17-14-17-17|-17-14-------17-14-------17|-17-14-----17-14--|
D|--17-14-17----------------|-------17--x-------17-14---|-------17-x-------|
A|--------------------------|---------------------------|------------------|
E|--------------------------|---------------------------|------------------|

e|----------|------------------------|-------------------------------------|
B|----------|------------------------|-------------------bu----------------|
G|--------17|-17-14------17-14-------|--17-14----14-17-17--18-17-14-17--14-|
D|--17-14---|-------17-x-------17-14-|--------17---------------------------|
A|----------|------------------------|-------------------------------------|
E|----------|------------------------|-------------------------------------|
                                                                    qtr bend
e|-----------------------------------------------------|-------------------|
B|---bu-------bu-----bu-----bu-----bu--bd--------------|---bu---18---bu----|
G|-17--18---17--18-17--18-17--18-17--18--17--14-17---14|-17--18----17------|
D|-----------------------------------------------------|-------------------|
A|-----------------------------------------------------|-------------------|
E|-----------------------------------------------------|-------------------|
               qtr bend
e|-------------------------------------|-----------------------------------|
B|---bu---18----bu---bu--bd------------|--------bu-----bu--bd--------------|
G|-17--18-----17---17--19--17-14-17-14-|--17--14--15-17--19--17------------|
D|-------------------------------------|-----------------------------------|
A|-------------------------------------|-----------------------------------|
E|-------------------------------------|-----------------------------------|

e|-----------------------------------|-------------------------------------|
B|-----------------------------------|-------------------------------------|
G|--17-17-14-------------------------|-------------------------------------|
D|-----------17-14-14-17~~~-17-17-17-|-17~~~-17-17-17p15-15h17-------------|
A|-----------------------------------|-------------------------------------|
E|-----------------------------------|-------------------------14\---------|
OUTRO
e|-----------------|--------------|
B|-----------------|--------------|
G|.----------------|-------------.|
D|.7-7-7-7-7-7-7-7-|-7-7-7-7--7--.|
A|-6-6-6-6-6-6-6-6-|-6-6-6-6--7---|
E|-5-5-5-5-5-5-5-5-|-5-5-5-5--5---|


| /  slide up
| \  slide down
| h  hammer-on
| p  pull-off
| ~  vibrato
| +  harmonic
| x  Mute note
============================================================================





Comments


Popular Eagles Of Death Metal tabs & chords
Cherry Cola Bass Tabs
I Want You So Hard (Boy's Bad News) Bass Tabs
I Want You So Hard (Boy's Bad News) 1 Bass Tabs
So Easy Bass Tabs
Stuck In The Metal With You Chords
Bad Dream Mama Tabs
Flames Go Higher 1 Tabs
Midnight Creeper 1 Tabs
So Easy 1 Tabs
Stuck In The Metal With You Ukulele


Song lyrics



↑ Back to top | Tablatures and chords are parodies/interpretations of the original songs. You may use it for private study, scholarship, research or language learning purposes only
© 2014 AZChords.com Contact us | Privacy policy | DMCA | Add/correct tabs | Request tabs | Top 50 tabs