» » »

Eagles Of Death Metal, I Want You So Hard (Boy's Bad News) Bass tabs (ver.1)

Artists:  A B C D E F G H I J K L M N O P Q R S T U V W X Y Z # 

I Want You So Hard (Boy's Bad News) Bass tabs (ver.1)

Eagles Of Death Metal Tabs
Rating:
0/5 (0 votes)
Hard to play? Try these video lessons and learn fast.
                "Hahahahaha"

G-------------|
D-------------|
A-----------3-|
E-5-5-5-5-5---|x7

G--------------------------|
D--------------------------|
A-5-5-5-5-5-3--5-5-5-5-5-3-|
E--------------------------|

"Your wasting you time,cuz the boys bad news!"

G--------------------------|
D--------------------------|
A-5-5-5-5-5-3--5-5-5-5-5-3-|
E--------------------------|

"Just leave him alone,Cuz the boys bad news"

G------------------------------------------|
D------------------------------------------|
A-----------3----------3----------3--------|
E-5-5-5-5-5---5-5-5-5-5--5-5-5-5-5---------|x2

G--------------------------|
D-----3-4-5-3-----3-4-5-3--|
A-3-3---------3-3----------|
E--------------------------|

G--------------------------|
D--------------------------|
A-5-5-5-5-5-3--5-5-5-5-5-3-|
E--------------------------|

"Your Wasting your time,the boys bad news"

G------------------------|
D------------------------|
A-----------3----------3-|
E-5-5-5-5-5---5-5-5-5-5--|

"Leave him Cuz he just bad news"

(guitar solo)
G-------------|
D-------------|
A-----------3-|
E-5-5-5-5-5---|x7

G--------------------------|
D-----3-4-5-3-----3-4-5-3--|
A-3-3---------3-3----------|
E--------------------------|

G--------------------------|
D--------------------------|
A-5-5-5-5-5-3--5-5-5-5-5-3-|
E--------------------------|

G------------------------|
D------------------------|
A-----------3----------3-|
E-5-5-5-5-5---5-5-5-5-5--|

G--------------------------|
D--------------------------|
A-5-5-5-5-5-3--5-5-5-5-5-3-|
E--------------------------|

(End of guitar solo)

G------------------------|
D------------------------|
A-----------3------------|
E-5-5-5-5-5---5-5-5-5-5--| repeat till it fades out
            

comments powered by Disqus
↑ Back to top | Eagles Of Death Metal Bass for I Want You So Hard (Boy's Bad News). Lyrics for acoustic guitar and electric guitar. Tablatures and chords are parodies/interpretations of the original songs. You may use it for private study, scholarship, research or language learning purposes only