» » »

Eagles Of Death Metal, I Want You So Hard (Boy's Bad News) Bass tabs (ver.2)

Artists:  A B C D E F G H I J K L M N O P Q R S T U V W X Y Z # 

I Want You So Hard (Boy's Bad News) Bass tabs (ver.2)

Eagles Of Death Metal Tabs
 Rating:
4/5 (4 votes)
I Want You So Hard (Boy's Bad News) lessons Tabs too difficult? Try these video lessons and learn fast
                Eagles of Death metal
I Want You So Hard (Boys Bad News)

Hahahahaha!

G|-----------------|    |------------------|
D|-----------------|    |------------------|
A|--0-0-0-0-0-3--3-| x3 |--0-0-0-0-0-3-----|
E|-----------------|    |--------------3-3-|
________________________________________________________________________________________________
0:07
G|-----------------|    |------------------|
D|-----------------|    |------------------|
A|--0-0-0-0-0-3--3-| x3 |--0-0-0-0-0-3-----|
E|-----------------|    |--------------3-3-|
________________________________________________________________________________________________
0:12
G|------------------------------|
D|------------------------------|
A|--5-5-5-5-5-3--0--5-5-5-5-5-3-|
E|------------------------------|
My friends are talking and theyre telling you!

Youre wasting your time, cuz the boys bad news

G|------------------------------|
D|------------------------------|
A|--5-5-5-5-5-3--0--5-5-5-5-5-3-|
E|------------------------------|
My friends are talking and theyre telling you!

Just leave him alone, cuz the boys bad news!
_________________________________________________________________________
0:24
G|---|----------------|    |------------------|
D|---|----------------|    |------------------|
A|-\-|-0-0-0-0-0-3--3-| x3 |--0-0-0-0-0-3-----|
E|---|----------------|    |--------------3-3-|

G|----------------|    |-------------------------------|
D|----------------|    |------3-4-5-3--------3-4-5-3---|
A|-0-0-0-0-0-3--3-| x2 |--3-3---------3--3-3---------3-|
E|----------------|    |-------------------------------|
________________________________________________________________________________________________
0:36
G|------------------------------|
D|------------------------------|
A|--5-5-5-5-5-3--0--5-5-5-5-5-3-|
E|------------------------------|
My friends are talking and theyre telling you!

Youre wasting your time, the boys bad news

G|------------------------------|
D|------------------------------|
A|--5-5-5-5-5-3--0--5-5-5-5-5-3-|
E|------------------------------|
My friends are talking and theyre telling you!

Leave him alone, cuz hes just bad news!
_____________________________________________________________________
0:47 (SOLO)
G|----------------------------------|
D|----------------------------------|
A|--0-0-0-0-0-3--3--0-0-0-0-0-3-----| x2
E|------------------------------3-3-|

G|-----------------|    |-------------------------------|
D|-----------------|    |------3-4-5-3--------3-4-5-3---|
A|--0-0-0-0-0-3--3-| x2 |--3-3---------3--3-3---------3-|
E|-----------------|    |-------------------------------|

G|-----------------|    |-----------------|    |-----------------|
D|-----------------|    |-----------------|    |-----------------|
A|--5-5-5-5-5-3--0-| x2 |--0-0-0-0-0-3--3-| x2 |--5-5-5-5-5-3--0-| x2
E|-----------------|    |-----------------|    |-----------------|

	*pause*
________________________________________________________________________________________________


1:11
G|---|----------------|    |------------------|
D|---|----------------|    |------------------|
A|-\-|-0-0-0-0-0-3--3-| x3 |--0-0-0-0-0-3-----|
E|---|----------------|    |--------------3-3-|

G|----------------|    |-------------------------------|
D|----------------|    |------3-4-5-3--------3-4-5-3---|
A|-0-0-0-0-0-3--3-| x2 |--3-3---------3--3-3---------3-|
E|----------------|    |-------------------------------|
________________________________________________________________________________________________
1:22
G|------------------------------|
D|------------------------------|
A|--5-5-5-5-5-3--0--5-5-5-5-5-3-|
E|------------------------------|
My friends are talking and theyre telling you!

Youre wasting your time, cuz the boys bad news

G|------------------------------|
D|------------------------------|
A|--5-5-5-5-5-3--0--5-5-5-5-5-3-|
E|------------------------------|
My friends are talking and theyre telling you!

Just leave him alone, cuz the boys bad news!

	*pause*

Bad news!
________________________________________________________________________________________________
1:36
G|----------------------------------|
D|----------------------------------|
A|--0-0-0-0-0-3--3--0-0-0-0-0-3-----| x8
E|------------------------------3-3-|

G|--------------------------------|
D|----------------------3-4-5-3---|
A|--0-0-0-0-0-3--3--3-3---------3-| x2
E|--------------------------------|

G|----------------------------------|
D|----------------------------------|
A|--0-0-0-0-0-3--3--0-0-0-0-0-3-----| x2
E|------------------------------3-3-|

	*fade out*
________________________________________________________________________________________________
            
Submit corrections

comments powered by Disqus
↑ Back to top | Eagles Of Death Metal Bass for I Want You So Hard (Boy's Bad News). Lyrics for acoustic guitar and electric guitar. Tablatures and chords are parodies/interpretations of the original songs. You may use it for private study, scholarship, research or language learning purposes only