» » »

I Want You So Hard (Boy's Bad News) Tabs (ver.1)

Artists:  A B C D E F G H I J K L M N O P Q R S T U V W X Y Z # 

I Want You So Hard (Boy's Bad News) Tabs (ver.1)

Eagles Of Death Metal
Rating:
0/5 (0 votes)

Tabs too difficult? Try these video lessons and learn fast.
                ALEXS IS GAY (jist hope yi wid wunt ti kane)

EAGLES OF DEAH METAL-I WANT YOU SO HARD

         VERSES
E-------------------------------|
B--2--2--2--2--2--5-----5-------|   play 8 times
G--2--2--2--2--2--5-----5-------|
d--2--2--2--2--2--5-----5-------|
A--0--0--0--0--0--3-----3-------|
E-------------------------------|

E--------------------------------|
B--7--7--7--7--7--5--------------|
G--7--7--7--7--7--5---0----------|
D--7--7--7--7--7--5---0----------|
A--5--5--5--5--5--3---0----------|
E--------------------------------|

E------------------------------|
B--7--7--7--7--7--5---5---2----|
G--7--7--7--7--7--5---5---2----|
D--7--7--7--7--7--5---5---2----|
A--5--5--5--5--5--3---3---0----|
E---------------------3---0----|

E--------------------------------------------------|
B--2-----------------------------------------------|
G--2-----------------------------------------------|
D--2-----------------------------------------------|
A--0-----------------------------------------------|
E------------------------------------1--/----------|

      SOLO
E------------------------------------------------------------------|
B------------------------------------------------------------------|
G------------------------------------------------------------------|
D------------------------------------------------------------------|
A------5--/---12--12--12---12---12-----12---12---12--15--12--------|
E-------------------------------------------12---------------------|

E------------------------------------------------------------------|
B----------------------BU--------------17--------------------------|
G-------------17------17(19)----17----(19)-------------------------|
D-------14----------------------------------BD---------------------|
A--15--------------------------------------------------------------|
E------------------------------------------------------------------|

E---------------------------------------------------------------------|
B---BD----17-------------BU---BD--------------------------------------|
G-----17-------17--17---(18)--(17)--14----14--------------------------|
D---------------------------------------------------------------------|
A---------------------------------------------------------------------|
E---------------------------------------------------------------------|

E---------------------------------------|
B---------------BD----------------------|
G--14---14---(15)(14)---14--14--14------|
D---------------------------------------|
A---------------------------------------|
E---------------------------------------|

E------------------------------------------------|
B------------------------------BD---------17-----|
G--(15)(14)---14--14-14-14--(18)--(17)-----------|
D------------------------------------------------|
A------------------------------------------------|
E------------------------------------------------|

E--------------------------------------------------|
B-----BD-------------------------------------------|
G--(18)(17)-14------------BD-----------------------|
D---------------17-----(18)(17)---14--17--17-------|
A-------------------0------------------------------|
E--------------------------------------------------|

E----------------------------------------------------|
B----------------------------------------------------|
G---------------14--17--14--17--17-------------------|
D--17--14--17----------------------------------------|
A----------------------------------------------------|
E----------------------------------------------------|

E-----------------------------------------|
B-----------------------------------------|
G--17--14----------17--14----------17-----|
D----------17--x-----------17--14---------|
A-----------------------------------------|
E-----------------------------------------|

E---------------------------------------|
B---------------------------------------|
G--17--14--------17--14-----------------|
D----------17--x--------17--14----------|
A---------------------------------------|
E---------------------------------------|

E----------------------------------------------------------|
B---------------------BU-----------------------------------|
G-17--14------14---17-17(18)----17--14--17--14-------------|
D---------17-----------------------------------------------|
A----------------------------------------------------------|
E----------------------------------------------------------|

E------------------------------------------------------------------------|
B-----BU--------BU--------BU------BU--BD---------------------------------|
G--17--(18)----17(18)---17(18)--17(18)----(17)17(18)--(17)--14--17---14--|
d------------------------------------------------------------------------|
A------------------------------------------------------------------------|
E------------------------------------------------------------------------|

E---------------------------------------------------------------------|
B----BU----18---------BU--BD------------------------------------------|
G--17(18)-------17--17-19----(17)--14--17---14------------------------|
D---------------------------------------------------------------------|
a---------------------------------------------------------------------|
E---------------------------------------------------------------------|

E-------------------------------------------------|
B---------BU-------BU--BD-------------------------|
G--17--14----(15)-17(19)(17)---14--17--17---------|
D-------------------------------------------------|
A-------------------------------------------------|
E-------------------------------------------------|

E----------------------------------------|
B----------------------------------------|
G--17--17--14----------------------------|
D-------------17--14--14--17---17-17-17--|
A----------------------------------------|
E----------------------------------------|

E----------------------------------|
B----------------------------------|
G----------------------------------|
D---17---17-17-17-17-15-15-17------|
A----------------------------------|
E-----------------------------14/--|

        OUTRO
E------------------------------------|
B------------------------------------|
G------------------------------------|
D--7--7-7-7-7-7-7-7------------------|
A--6--6-6-6-6-6-6-6------------------|
E--5--5-5-5-5-5-5-5------------------|

E----------------------------|
B----------------------------|
G----------------------------|
D--7--7--7--7--7-------------|
A--6--6--6--6--7-------------|
E--5--5--5--5--5-------------|
            
Tabs too difficult? Try these video lessons and learn fast.


comments powered by Disqus
↑ Back to top | Tablatures and chords are parodies/interpretations of the original songs. You may use it for private study, scholarship, research or language learning purposes only