» » »

I Want You So Hard (Boy's Bad News) Tabs (ver.3)

Artists:  A B C D E F G H I J K L M N O P Q R S T U V W X Y Z # 

I Want You So Hard (Boy's Bad News) Tabs (ver.3)

Eagles Of Death Metal
Rating:
0/5 (0 votes)

Hard to play? Try these video lessons and learn fast.
                --------------------------------------------------------------------------
          I Want You So Hard (Boys Bad News) - Eagles Of Death Metal
--------------------------------------------------------------------------

Tuning: Standard (EADGBE)

It's the same riff throughout the song really, so it's not too hard.

e|--------------------------------|
B|--------------------------------|
G|-2-2-2-2-2-5^----2-2-2-2-2-2-5^-|
D|-2-2-2-2-2-5^----2-2-2-2-2-2-5^-| x4
A|-0-0-0-0-0-3^----0-0-0-0-0-0-3^-|
E|--------------------------------|

e|----------------------------|
B|----------------------------|
G|-7-7-7-7-7-5--7-7-7-7-7-5-2-|
D|-7-7-7-7-7-5--7-7-7-7-7-5-2-| 
A|-5-5-5-5-5-3--5-5-5-5-5-3-0-|
E|----------------------------|

Drum fill comes in here then:

e|----------------------------|
B|----------------------------|
G|-7-7-7-7-7-5--7-7-7-7-7-5-2-|
D|-7-7-7-7-7-5--7-7-7-7-7-5-2-|
A|-5-5-5-5-5-3--5-5-5-5-5-3-0-|
E|----------------------------|

e|--------------------------------|
B|--------------------------------|
G|-2-2-2-2-2-5^----2-2-2-2-2-2-5^-|
D|-2-2-2-2-2-5^----2-2-2-2-2-2-5^-| x4
A|-0-0-0-0-0-3^----0-0-0-0-0-0-3^-|
E|--------------------------------|

e|----------------------------|
B|----------------------------|
G|-7-7-7-7-7-5--7-7-7-7-7-5-2-|
D|-7-7-7-7-7-5--7-7-7-7-7-5-2-| 
A|-5-5-5-5-5-3--5-5-5-5-5-3-0-|
E|----------------------------|

Drum fill comes in here then:

e|----------------------------|
B|----------------------------|
G|-7-7-7-7-7-5--7-7-7-7-7-5-2-|
D|-7-7-7-7-7-5--7-7-7-7-7-5-2-|
A|-5-5-5-5-5-3--5-5-5-5-5-3-0-|
E|----------------------------|

Now play this through the solo:

e|--------------------------------|
B|--------------------------------|
G|-2-2-2-2-2-5^----2-2-2-2-2-2-5^-|
D|-2-2-2-2-2-5^----2-2-2-2-2-2-5^-| x4
A|-0-0-0-0-0-3^----0-0-0-0-0-0-3^-|
E|--------------------------------|

e|---------------------------|
B|---------------------------|
G|-7-7-7-7-7-5--7-7-7-7-7-5--|
D|-7-7-7-7-7-5--7-7-7-7-7-5--|
A|-5-5-5-5-5-3--5-5-5-5-5-3--|
E|---------------------------|

e|--------------------------------|
B|--------------------------------|
G|-2-2-2-2-2-5^----2-2-2-2-2-2-5^-|
D|-2-2-2-2-2-5^----2-2-2-2-2-2-5^-|
A|-0-0-0-0-0-3^----0-0-0-0-0-0-3^-|
E|--------------------------------|

e|----------------------------|
B|----------------------------|
G|-7-7-7-7-7-5--7-7-7-7-7-5-2-|
D|-7-7-7-7-7-5--7-7-7-7-7-5-2-|
A|-5-5-5-5-5-3--5-5-5-5-5-3-0-|
E|----------------------------|

Ok now back to the main bit:

e|--------------------------------|
B|--------------------------------|
G|-2-2-2-2-2-5^----2-2-2-2-2-2-5^-|
D|-2-2-2-2-2-5^----2-2-2-2-2-2-5^-| x4
A|-0-0-0-0-0-3^----0-0-0-0-0-0-3^-|
E|--------------------------------|

e|----------------------------|
B|----------------------------|
G|-7-7-7-7-7-5--7-7-7-7-7-5-2-|
D|-7-7-7-7-7-5--7-7-7-7-7-5-2-| 
A|-5-5-5-5-5-3--5-5-5-5-5-3-0-|
E|----------------------------|

Drum fill comes in here then:

e|----------------------------|
B|----------------------------|
G|-7-7-7-7-7-5--7-7-7-7-7-5-2-|
D|-7-7-7-7-7-5--7-7-7-7-7-5-2-|
A|-5-5-5-5-5-3--5-5-5-5-5-3-0-|
E|----------------------------|

Outro:

e|--------------------------------|
B|--------------------------------|
G|-2-2-2-2-2-5^----2-2-2-2-2-2-5^-|
D|-2-2-2-2-2-5^----2-2-2-2-2-2-5^-| Just keep repeating this over and over
A|-0-0-0-0-0-3^----0-0-0-0-0-0-3^-|
E|--------------------------------|

There is also a bit played over this riff which just goes (but with heavy
distortion I think):

e|---------|
B|---------|
G|---------|
D|-7...-7--| Just Keep repeating this aswell
A|-6...-7--|
E|-5...-5--|

Congrats! That's the whole song...Minus the solos, which I'm working on.
I've found the scale, but i just need the notes..

Anyway Enjoy!


| /   Slide up
| \   Slide down
| h   Hammer-on
| p   Pull-off
| ~   Vibrato
| +   Harmonic
| x   Mute note
| ... Let Ring
| ^   Bend Note Up
============================================================================
            
Hard to play? Try these video lessons and learn fast. | Correct




comments powered by Disqus
↑ Back to top | Tablatures and chords are parodies/interpretations of the original songs. You may use it for private study, scholarship, research or language learning purposes only