>
 >
N.O.D 2

N.O.D 2 Guitar Tabs

Down - N.O.D 2 chords, tabs, tablatures, lyrics

Guitar lessons | Add/correct | Request | Top 50 tabs Artists:  A B C D E F G H I J K L M N O P Q R S T U V W X Y Z 0-9

N.O.D 2 Guitar Tabs – Down

CD, Sheet music, Poster

Do you like N.O.D 2? Share with your friends now
TabsTabs v2Tabs v3


Tuning: B E A D F# B (Drop B Standard Tuning)

Legend

b  - bend
~  - vibrato
pb - prebend
r  - release bend
/\ - slides (self explanatory)
h  - hammer on
p  - pull off
PM - Palm Mute
g  - grace note
ph - pinch harmonic
tr - trill 
=  - tremelo pick
.  - Stoccato/Palm Mute


Intro
|----------------------------------------|
|----------------------------------------|
|----------------------------------------|
|-7/9-9-9p7-----------5----5---5--7-8-7\-|
|-----------9--5--5h7----7---7-----------|
|----------------------------------------|

Part 1
|--------------------------------|----------------------------------|
|--------------------------------|----------------------------------|
|--------------------------------|----------------------------------|
|---------------------------7--5-|----------------------------------|
|------5h7-----5h7-----5h7-------|-----5h7-----5h7-----5h7-7p6p5----|
|-0-0------0-0-----0-0------5--3-|-0-0-----0-0-----0-0-----------5\-|
  . .      . .     . .             . .     . .     . . 

|---------------------------------|---------------------------------|
|---------------------------------|---------------------------------|
|---------------------------------|---------------------------------|
|-------------------------/7-7-5~-|---------------------------------|
|-----5h7-----5h7-----5h7---------|-----5h7-----5h7-----5h7-7p6p5---|
|-0-0-----0-0-----0-0-------------|-0-0-----0-0-----0-0-----------5\|
  . .     . .     . .               . .     . .     . .

Part 2

|----------------------|-----------------------|
|----------------------|-----------------------|
|----------------------|-----------------------|
|----2--2-2-------/7-7-|----2--2-2-------------|
|----2--2-2-------/5-5-|----2--2-2---------/9~-|
|-00-0--0-0------------|-00-0--0-0---------/7~-|
  ..                     ..
|----------------------|--------------------------------|
|----------------------|--------------------------------|
|----------------------|--------------------------------|
|----2--2-2-------/7-7-|-------------------2-2-2--------|
|----2--2-2-------/5-5-|-------------------2-2-2--8-7-5-|
|-00-0--0-0------------|-00-0000-0-0000-0000-0-0--6-5-3-|
  ..                     .. .... . .... .... . .

Part 3

|----------------------|-----------------------|
|----------------------|-----------------------|
|----------------------|-----------------------|
|----2--2-2-------/7-7-|----2--2-2-------------|
|----2--2-2-------/5-5-|----2--2-2---------/9~-|
|-00-0--0-0------------|-00-0--0-0---------/7~-|
  ..                     .. 
|----------------------|-----------------------|
|----------------------|-----------------------|
|----------------------|-----------------------|
|----2--2-2------------|----2--2-2-------------|
|----2--2-2-----8-7-5--|----2--2-2---------/9~-|
|-00-0--0-0-----6-5-3--|-00-0--0-0---------/7~-|
  ..                     ..

Part 4a                                   Part 4b

|----------------------------------------|--------------------------|
|----------------------------------------|--------------------------|
|----------------------------------------|--------------------------|
|-7/9-9-9p7-----------5----5---5--7-8-7\-|-7/9-9-9p7------/9-7------|
|-----------9--5--5h7----7---7-----------|-----------9-5-------10-9-|
|----------------------------------------|--------------------------|


Part 5
|-------------------------------------------|
|-------------------------------------------|
|-------------4---4-------------------------|
|-44444444----4---4----77777777-------------|
|-22222222-22222222222-55555555-55555555----|
|-------------------------------33333333----|
  ........ ... ... ... ........ ........

Part 6
|------------------------------------|
|------------------------------------|
|------------------------------------|
|-----------------7h8------5p3p2-----|
|--------5h7-------------------------|
|-000000-----0000-----0000-------5\--|
  ......     ....     ....

Solo
        Whammy then divebomb
             V
|-15b----b17~~~~~~~-\---/11--11h12-11-9-11~-11-11-11-------|
|-----------------------------------------------------/12--| Roughly like that.
|----------------------------------------------------------| Improvise with whammy bar.
|----------------------------------------------------------|
|----------------------------------------------------------|
|----------------------------------------------------------|

Part 7
|-----------------------------------------------------|
|-----------------------------------------------------|
|-----------------------------------------------------|
|-----------------7h8------5p3p2----------------------|
|--------5h7---------------------999999999999-9-7-5-4-|
|-000000-----0000-----0000-------777777777777-7-5-3-2-|
  ......     ....     ....       ............

Part 8 (The End)
|-------------------------------------|
|-------------------------------------|
|-------------------------------------|
|-5p3p2-5p3p2-5p3p2-------------------|
|--------------------9-----9--5-------|
|--------------------7-----7--3-------|


Song Order:

Intro   x1
Part 1  x1
Part 2  x1  "Sick of the Sickness..."
Part 3  x1  "Liberation Requiem..."
Part 4a x1  "The Dark Side..."
Part 4b x1  "The Dark Side..."
Part 1  x1
Part 2  x1  "Lost On A Trip..."
Part 3  x1  "Inside Of Dead Weight Standing..."
Part 4a x3  "The Dark Side..."
Part 4b x1  "The Dark Side..."
Part 1  x1  "You Fight...."
Part 4a x3  "The Dark Side..."
Part 4b x1  "The Dark Side..."
Part 1  x1  "I'll Fight..."
Part 5  x2  "We'll Never Know When..."
Part 6  x12 "Last Time..."   (Solo starts after fourth time of part 6)
Part 7  x1  "I'll fight..."
Part 6  x3  "You say you want a revolution..."
Part 7  x1  "I will fight..."
Part 8  x1


There's a bit of variation at the end but its not too hard to figure out! :D





Comments


Popular Down tabs & chords
Hail The Leaf 1 Bass Tabs
Stone The Crow Bass Tabs
Beneath The Tides Intro Tabs
Ghost Along The Mississippi Tabs
Jail Tabs
Jail 1 Tabs
Lysergik Funeral Procession Tabs
Stained Glass Cross Tabs
Stone The Crow 3 Tabs
The Seed Tabs


Song lyrics



↑ Back to top | Tablatures and chords are parodies/interpretations of the original songs. You may use it for private study, scholarship, research or language learning purposes only
© 2014 AZChords.com Contact us | Privacy policy | DMCA | Add/correct tabs | Request tabs | Top 50 tabs