» » »

Down, Stone The Crow Bass tabs (ver.1)

Artists:  A B C D E F G H I J K L M N O P Q R S T U V W X Y Z # 

Stone The Crow Bass tabs (ver.1)

Down Tabs
Rating:
0/5 (0 votes)
Hard to play? Try these video lessons and learn fast.
                

Explanation
h - Hammer-on     ~ - Let note ring
p - Pull-off      .
\ - Slide down    . - Repeat Sign
/ - Slide up


Intro/Verse

G|-----------------------------|----------------------------|
D|-----------------------------|----------------------------|
A|-------------------------5h7-|------------------------5h7-|
E|--7--7-5---7-5--5-7---5h7----|--7--7-5\----2--0-7-5h7-----|

G|-----------------------------|----------------------------|
D|-----------------------------|----------------------------|
A|-------------------------5h7-|----------------------------|
E|--7--7-5---7-5--5-7---5h7----|--7--7-5/-\---2--0-7~-------|



Chorus
G|--------------------------|--------------------------|
D|--------------------------|--------------------------|
A|-------5-5--77-------5h7--|------5-5--7-5--------5~--|
E|--7-7----------7--5h7-----|-7-7-----------7--5h7-----|



Verse 2
G|-----------------------------|----------------------------|
D|-----------------------------|----------------------------|
A|-------------------------5h7-|------------------------5h7-|
E|--7--7-5---7-5--5-7---5h7----|--7--7-5\----2--0-7-5h7-----|

G|-----------------------------|----------------------------|
D|-----------------------------|----------------------------|
A|-------------------------5h7-|----------------------------|
E|--7--7-5---7-5--5-7---5h7----|--7--7-5\---2--0-7~---------|




Outro
G|-----------------------------|-------------------------------|
D|-----------------------------|-------------------------------|
A|-------------------------5h7-|--------------------------5h7--|
E|--7--7-5---7-5--5-7---5h7----|--7--7-5-0-1-2--7-5-7--5h7-----|

G|-----------------------------|-------------------------------|
D|-----------------------------|-------------------------------|
A|-------------------------5h7-|-------------------------------|
E|--7--7-5---7-5--5-7---5h7----|--7--7-5-0-1-2--7-5-7~---------|

Repeat this section once
G|------------------------------|-------------------------------|
D|.-----------------------------|-------------------------------|
A|.-----5h7-7p5---7~------------|----5h7-7p5--------------------|
E|--5h7--------7----------------|-5h7--------7-5h7~-------------|

G|-----------------------------|--------------------------------|
D|-----------------------------|-------------------------------.|
A|-----5h7-7p5---7~------------|-5h7-5-------------------------.|
E|--5h7--------7---------------|-------7p5-7~-------------------|


G|-----------------------------|-------------------------------|
D|-----------------------------|-------------------------------|
A|-------------------------5h7-|--------------------------5h7--|
E|--7--7-5---7-5--5-7---5h7----|--7--7-5-0-1-2--7-5-7--5h7-----|

G|-----------------------------|-------------------------------|
D|-----------------------------|-------------------------------|
A|-------------------------5h7-|-------------------------------|
E|--7--7-5---7-5--5-7---5h7----|--7--7-5-0-1-2--7-5-7~---------|


Song Structure
Intro/Verse x2
Chorus x2
Verse 2 x2
Chorus x2
Guitar Solo (Same as Chorus) x4
Intro/Verse x2
Chorus x4
Outro
            

comments powered by Disqus
↑ Back to top | Down Bass for Stone The Crow. Lyrics for acoustic guitar and electric guitar. Tablatures and chords are parodies/interpretations of the original songs. You may use it for private study, scholarship, research or language learning purposes only