>
 >
Stone The Crow

Stone The Crow Guitar Tabs

Down - Stone The Crow chords, tabs, tablatures, lyrics

Guitar lessons | Add/correct | Request | Top 50 tabs Artists:  A B C D E F G H I J K L M N O P Q R S T U V W X Y Z 0-9

Stone The Crow Guitar Tabs – Down

CD, Sheet music, Poster

Do you like Stone The Crow? Share with your friends now
Bass TabsTabsTabs v2Tabs v3Tabs v4
and:  Down


.  - palm mute           /  - slide up to
\  - slide down to       ~  - vibrato
h  - hammer on           b  - Bend
p  - pull off            Suffixes for bend
t  - tap                 f  - full bend    h - half bend
ph - pinched harmonic    q  - quarter bend t - tap bend
*  - see comment         ^  - Hold bend    r release bend
x  - Stuccatto           ~  - vibrato bend
,  - slight palm mute    () - ghost note, sustained note
"  - tremolo note        <> - Trill

Note:  Play close attention to the notations.  Lots of bends and releases.
If you don't hit them it screws everything up.

Tunning E A D G B E

intro
guitar 1  clean
|-------------------------------------------------------------------|
|-------------------------------------------------------------------|
|-------------------------------------------------------------2-----|
|-2h4---4p2----0h2-------0h2---4qr---4p2--------------0h2--/4-------|
|-----2-----0-------0h2------------------2------0h2-----------------|
|--------------------------------------------0----------------------|

|-------------------------------------------------------------------|
|-------------------------------------------------------------------|
|-------------------------------------------------------------------|
|--4p2p0---0h2---2p0---2q--2---0h2---2q-r---------------------------|
|-------------------------------------------------------------------|
|-------------------------------------------------------------------|

(both guitars slightly distorted)
|-------------------------------------------------------------------|
|-------------------------------------------------------------------|
|------2----4----4/6-----6-6q---6-6q--6-6q--6--6\4--2---4----4/6----|
|-2h4---------------------------------------------------------------|
|-------------------------------------------------------------------|
|-------------------------------------------------------------------|
  ,                        ,      ,     ,

|-------------------------------------------------------------------|
|-------------------------------------------------------------------|
|-6-6q--6-6q---6--4-------------------------------------------------|
|---------------------------2--4---2h4p2----------------------------|
|----------------------2h4----------------4---4p2--4q-r---2h4p2p0---|
|-------------------------------------------------------------------|
     ,     ,                                  ,

riff 1 (both guitars)    ["A bout of deep depression.......]
|-------------------------------------------------------------------|
|-------------------------------------------------------------------|
|------2--4---------------------------------------------------------|
|-2h4---------------------------------------------------------------|
|-------------------------------------------------------------------|
|-------------------------------------------------------------------|

riff 2 (guitar 1, guitar 2 plays riff 1) ["I lie as I lie awake.....]
|-------------------------------------------------------------------|
|-------------------------------------------------------------------|
|------2--4--4/6---6-6q--6-6q--6-6q---6--6\4---2---2/4--4/6---------|
|-2h4---------------------------------------------------------------|
|-------------------------------------------------------------------|
|-------------------------------------------------------------------|

                   pick scrape
|-------------------------------------------------------------------|
|-------------------------------------------------------------------|
|-6-6q--6-6q--6-----------------------------------------------------|
|-------------------x\----------------------------------------------|
|-------------------x\\---------------------------------------------|
|-------------------x\\\--------------------------------------------|

chorus (both guitars heavy distortion)
|-------------------------------------------------------------------|
|-------------------------------------------------------------------|
|-------------------------------------------------------------------|
|-0h4-4--xx--7-7--77/9---4------0--4--4--xx--7-7--77/9--x--7--x--4--|
|-0h2-2--xx--5-5--55/7---2------0--2--2--xx--5-5--55/7--x--5--x--2--|
|---------------------------0h2-------------------------------------|

riff3(guitar 2, guitar 1 plays riff 2) light distortion
|-------------------------------------------------------------------|
|-------------------------------------------------------------------|
|-----------------------14------------------------------------------|
|-------12h14--(14)/16------16p14\12--12h14-----------12h14--(14)qr-|
|-12h14----------------------------------------12h14----------------|
|-------------------------------------------------------------------|
   ,     ,                            ,         ,      ,

|-------------------------------------------------------------------|
|-------------------------------------------------------------------|
|-14p12-------------------------------14----------------------------|
|-------14--------------12h14--14/16------16p14\12--12h14--14p12----|
|------------12--12h14----------------------------------------------|
|-------------------------------------------------------------------|
                  ,      ,

|-------------------------------------------------------------------|
|-------------------------------------------------------------------|
|-------------------------------------------------------------------|
|-14q--14--12h14 14qr-----------------------------------------------|
|-------------------------------------------------------------------|
|-------------------------------------------------------------------|

fill near end of song (heavy distortion)
|-------------------------------------------------------------------|
|-------------------------------------------------------------------|
|-------------------------------------------------------------------|
|-------------------0h2-----------0h2p0-----------------------------|
|-------0--0h2p0-------------0h2---------2p0------------------------|
|--0h2------------2------0h2------------------2--(2)/12\------------|

|-------------------------------------------------------------------|
|-------------------------------------------------------------------|
|-------------------------------------------------------------------|
|-------------------0h2--2p0--2q--2--0h2--2qr-----------------------|
|-------0--oh2p0----------------------------------------------------|
|--0h2------------2-------------------------------------------------|



last three chords of the song
|-------------------------------------------------------------------|
|-------------------------------------------------------------------|
|-------------------------------------------------------------------|
|--xx--9--x--7--x--4------------------------------------------------|
|--xx--7--x--5--x--2------------------------------------------------|
|-------------------------------------------------------------------|

END





Comments


Popular Down tabs & chords
3 Suns And 1 Star Tabs
Bury Me In Smoke Tabs
Ghost Along The Mississippi 1 Tabs
In The Thrall Of It All Tabs
Jail Tabs
Lifer Tabs
N.O.D Tabs
New Orleans Is A Dying Whore 1 Tabs
The Man That Follows Hell Tabs
There's Something On My Side Tabs


Song lyrics



↑ Back to top | Tablatures and chords are parodies/interpretations of the original songs. You may use it for private study, scholarship, research or language learning purposes only
© 2014 AZChords.com Contact us | Privacy policy | DMCA | Add/correct tabs | Request tabs | Top 50 tabs