>
 >
On March The Saints

On March The Saints Guitar Tabs

Down - On March The Saints chords, tabs, tablatures, lyrics

Guitar lessons | Add/correct | Request | Top 50 tabs Artists:  A B C D E F G H I J K L M N O P Q R S T U V W X Y Z 0-9

On March The Saints Guitar Tabs – Down

CD, Sheet music, Poster

Do you like On March The Saints? Share with your friends now
Tabs
------------------------------------------------------------------------------
------------------------------------------------------------------------------

Tuning: C# [tune down 1 1/2 steps]

                                   Intro
e|----------------------------------------------------------------------------------|
B|----------------------------------------------------------------------------------|
G|--------------------------11-11-11-9-9--------------------------------------------|
D|------------7/9-9---------9--9--9--9-9-----7~7~--7/9-9----------------------------|
A|------------5/7-7--2--2-----------------7--5~5~--5/7-7-2--2--777\5-3-5------------|
E|-0-7-6-5-0---------0--0-----------------5--------------0--0-------------3-5-3~~---|
   |  p.m. |
   little drum 
     intro


e|----------------------------------------------------------------------------------|
B|----------------------------------------------------------------------------------|
G|--------------11-11-11-9-9--------------------------------------------------------|
D|-7/9-9--------9--9--9--9-9-----7~7~--7/9-9-------999\7-5-7------------------------|
A|-5/7-7--2--2----------------7--5~5~--5/7-7-2--2-----------------------------------|
E|--------0--0----------------5--------------0--0-------------\\--------------------|


                                                              

                                 Verse
e|----------------------------------------------------------------------------------|
B|----------------------------------------------------------------------------------|
G|----------------------------------------------------------------------------------|
D|-7/9-9--------------7~7~--7/9-9---------------------------------------------------|
A|-5/7-7--2--2-----7--5~5~--5/7-7-2--2--777\5-3-5-----------------------------------|
E|--------0--0-----5--------------0--0-------------3-5-3~~--------------------------|





e|----------------------------------------------------------------------------------|
B|----------------------------------------------------------------------------------|
G|----------------------------------------------------------------------------------|
D|-7/9-9-----------xxx-----7~7~--7/9-9--------999\7-5-7-----------------------------|
A|-5/7-7--2--2-----xxx--7--5~5~--5/7-7-2--2-----------------------------------------|
E|--------0--0-----xxx--5--------------0--0---------------\\------------------------|


                                                      

                               Chorus 
e|----------------------------------------------------------------------------------|
B|----------------------------------------------------------------------------------|
G|----------------------------------------------------------------------------------|
D|-------------7-7-7---11-11-11-11--9-------------7-7-7--7--------------------------|
A|-222---------5-5-5---9--9--9--9---7-222---------5-5-5--5--7/9-7-5-7---------------|
E|-000--3-4-5-------------------------000--3-4-5------------------------------------|





e|----------------------------------------------------------------------------------|
B|----------------------------------------------------------------------------------|
G|----------------------------------------------------------------------------------|
D|-------------7-7-7---11-11-11-11--9-------------7-7-7--7--------------------------|
A|-222---------5-5-5---9--9--9--9---7-222---------5-5-5--5--7/9-7-5-7---------------|
E|-000--3-4-5-------------------------000--3-4-5------------------------------------|





e|----------------------------------------------------------------------------------|
B|----------------------------------------------------------------------------------|
G|----------------------------------------------------------------------------------|
D|-------------7-7-7---11-11-11-11--9-------------7-7-7-----xxxx--------------------|
A|-222---------5-5-5---9--9--9--9---7-222---------5-5-5-----xxxx--------------------|
E|-000--3-4-5-------------------------000--3-4-5------------xxxx--------------------|




                                  Pre-Verse
e|----------------------------------------------------------------------------------|
B|--------------------------|-------------------------------------------------------|
G|---------------11-11-11-9-9-------------------------------------------------------|
D|-7/9-9---------9--9--9--9-9-----7~7~--7/9-9-------999-7-5-7-----------------------|
A|-5/7-7--2--2-----------------7--5~5~--5/7-7-2--2--777-5-3-5-----------------------|
E|--------0--0-----------------5--------------0--0-------------3-5-3~~--------------|




                                  2nd Verse
e|----------------------------------------------------------------------------------|
B|----------------------------------------------------------------------------------|
G|----------------------------------------------------------------------------------|
D|-7/9-9--------------7~7~--7/9-9---------------------------------------------------|
A|-5/7-7--2--2-----7--5~5~--5/7-7-2--2--777\5-3-5-----------------------------------|
E|--------0--0-----5--------------0--0-------------3-5-3~~--------------------------|





e|----------------------------------------------------------------------------------|
B|----------------------------------------------------------------------------------|
G|----------------------------------------------------------------------------------|
D|-7/9-9--------------7~7~--7/9-9--------999-7-5-7----------------------------------|
A|-5/7-7--2--2-----7--5~5~--5/7-7-2--2---777-5-3-5----------------------------------|
E|--------0--0-----5--------------0--0---------------\\-----------------------------|
                                                      



                                 2nd Chorus
e|----------------------------------------------------------------------------------|
B|----------------------------------------------------------------------------------|
G|----------------------------------------------------------------------------------|
D|-------------7-7-7---11-11-11-11--9-------------7-7-7--7--------------------------|
A|-222---------5-5-5---9--9--9--9---7-222---------5-5-5--5--7/9-7-5-7---------------|
E|-000--3-4-5-------------------------000--3-4-5------------------------------------|





e|----------------------------------------------------------------------------------|
B|----------------------------------------------------------------------------------|
G|----------------------------------------------------------------------------------|
D|-------------7-7-7---11-11-11-11--9-------------7-7-7--7--------------------------|
A|-222---------5-5-5---9--9--9--9---7-222---------5-5-5--5--7/9-7-5-7---------------|
E|-000--3-4-5-------------------------000--3-4-5------------------------------------|





e|----------------------------------------------------------------------------------|
B|----------------------------------------------------------------------------------|
G|----------------------------------------------------------------------------------|
D|-------------7-7-7---11-11-11-11--9-------------7-7-7-----------------------------|
A|-222---------5-5-5---9--9--9--9---7-222---------5-5-5-----------------------------|
E|-000--3-4-5-------------------------000--3-4-5----------5-------------------------|
                                                          ^



                                  Cool Part
e|----------------------------------------------------------------------------------|
B|----------------------------------------------------------------------------------|
G|----------------------------------------------------------------------------------|
D|------12\11-12---------------8\6-8------------------------------------------------|
A|------10\9--10----10\8-10----6\4-6------------------------------------------------|
E|-0000----------00-8-\6-8--00-------00-7h8-5h6-3h4-1h2-----------------------------|
   p.m.         p.m.       p.m.     p.m.




e|----------------------------------------------------------------------------------|
B|----------------------------------------------------------------------------------|
G|----------------------------------------------------------------------------------|
D|------12\11-12---------------8\6-8----------5~~-----------------------------------|
A|------10\9--10----10\8-10----6\4-6-------5h7--------------------------------------|
E|-0000----------00-8-\6-8--00-------00-5h7-----------------------------------------|
   p.m.         p.m.       p.m.     p.m.




e|----------------------------------------------------------------------------------|
B|----------------------------------------------------------------------------------|
G|----------------------------------------------------------------------------------|
D|------12\11-12---------------8\6-8------------------------------------------------|
A|------10\9--10----10\8-10----6\4-6------------------------------------------------|
E|-0000----------00-8-\6-8--00-------00-7h8-5h6-3h4-1h2-----------------------------|
   p.m.         p.m.       p.m.     p.m.




e|----------------------------------------------------------------------------------|
B|----------------------------------------------------------------------------------|
G|----------------------------------------------------------------------------------|
D|------12\11-12---------------8\6-8----------5~~-----------------------------------|
A|------10\9--10----10\8-10----6\4-6-------5h7--------------------------------------|
E|-0000----------00-8-\6-8--00-------00-5h7-----------------------------------------|
   p.m.         p.m.       p.m.     p.m.




e|----------------------------------------------------------------------------------|
B|----------------------------------------------------------------------------------|
G|----------------------------------------------------------------------------------|
D|----------------------------------------------------------------------------------|
A|---10-9-10-------------4-6-4------------------------------------------------------|
E|-5---------00-8-6-8-00-------00--2--1--8--5---------------------------------------|
   ^        p.m.     p.m.     p.m.       ^  ^




e|----------------------------------------------------------------------------------|
B|----------------------------------------------------------------------------------|
G|----------------------------------------------------------------------------------|
D|----------------------------------------------------------------------------------|
A|-10-9-10-------------4-6-4--------------------------------------------------------|
E|---------00-8-6-8-00-------00--5--5h6--2--5---------------------------------------|
          p.m.     p.m.     p.m.            ^ 




e|----------------------------------------------------------------------------------|
B|----------------------------------------------------------------------------------|
G|----------------------------------------------------------------------------------|
D|----------------------------------------------------------------------------------|
A|-10-9-10-------------4-6-4--------------------------------------------------------|
E|---------00-8-6-8-00-------00--2--1--8--5-----------------------------------------|
          p.m.     p.m.     p.m.       ^  ^




e|----------------------------------------------------------------------------------|
B|----------------------------------------------------------------------------------|
G|----------------------------------------------------------------------------------|
D|------------------------------------------------------------------------x-xx------|
A|-10-9-10-------------4-6-4----------------------------------------------x-xx------|
E|---------00-8-6-8-00-------00--5--5h6--2--5--5h6--2--5--5h6--2--5--5h6--x-xx------|
          p.m.     p.m.     p.m                               




e|----------------------------------------------------------------------------------|
B|----------------------------------------------------------------------------------|
G|----------------------------------------------------------------------------------|
D|----------------------------------------------------------------------------------|
A|----------------------------------------------------------------------------------|
E|-5--5h6--2--5--5h6--2--5--5h6--2--5--5h6------------------------------------------|




                                Last Chorus
e|----------------------------------------------------------------------------------|
B|----------------------------------------------------------------------------------|
G|----------------------------------------------------------------------------------|
D|---------------7-7-7--7------------------------7-7-7---11-11-11-11--9-------------|
A|-22222---------5-5-5--5--7/9-7-5-7-222---------5-5-5---9--9--9--9---7-------------|
E|-00000--3-4-5----------------------000--3-4-5-------------------------------------|





e|----------------------------------------------------------------------------------|
B|----------------------------------------------------------------------------------|
G|----------------------------------------------------------------------------------|
D|-------------7-7-7--7------------------------7-7-7---11-11-11-11--9---------------|
A|-222---------5-5-5--5--7/9-7-5-7-222---------5-5-5---9--9--9--9---7---------------|
E|-000--3-4-5----------------------000--3-4-5---------------------------------------|





e|----------------------------------------------------------------------------------|
B|----------------------------------------------------------------------------------|
G|----------------------------------------------------------------------------------|
D|-------------7-7-7-xxx------------------------------------------------------------|
A|-222---------5-5-5-xxx------------------------------------------------------------|
E|-000--3-4-5--------xxx------------------------------------------------------------|




                                  Ending
e|----------------------------------------------------------------------------------|
B|----------------------------------------------------------------------------------|
G|---------------11-11-11-9-9-------------------------------------------------------|
D|-7/9-9---------9--9--9--9-9-----7~7~--7/9-9-------999-7-5-7-----------------------|
A|-5/7-7--2--2-----------------7--5~5~--5/7-7-2--2--777-5-3-5-----------------------|
E|--------0--0-----------------5--------------0--0-------------3-5-3~~--------------|





e|----------------------------------------------------------------------------------|
B|----------------------------------------------------------------------------------|
G|---------------11-11-11-9-9-------------------------------------------------------|
D|-7/9-9---------9--9--9--9-9-----7~7--7/9-9----------------------------------------|
A|-5/7-7--2--2-----------------7--5~5--5/7-7--2---2---2-----------------------------|
E|--------0--0-----------------5--------------0---0---0-----------------------------|

| / = slide up
| \ = slide down
| h = hammer on
| ~ = vibrato
| ^ = bend
| x = Mute note
| p.m. = Palm mute
==================================================================================





Comments


Popular Down tabs & chords
Hail The Leaf 1 Bass Tabs
3 Suns And 1 Star Tabs
Jail Tabs
Lifer Intro Tabs
Pillars Of Eternity Tabs
Pray For The Locust Tabs
Stone The Crow 1 Tabs
Temptation's Wings Tabs
The Man That Follows Hell Tabs
There's Something On My Side Tabs


Song lyrics



↑ Back to top | Tablatures and chords are parodies/interpretations of the original songs. You may use it for private study, scholarship, research or language learning purposes only
© 2014 AZChords.com Contact us | Privacy policy | DMCA | Add/correct tabs | Request tabs | Top 50 tabs