» » »

N.O.D Tabs (ver.2)

Artists:  A B C D E F G H I J K L M N O P Q R S T U V W X Y Z # 

N.O.D Tabs (ver.2)

Down
Rating:
0/5 (0 votes)

Hard to play? Try these video lessons and learn fast.
                -------------------------------------------------------------------------------
                 N.O.D - Down
-------------------------------------------------------------------------------

Tuning: Drop-B  B,F#,B,E,G#,C#

This is most of N.O.D by Down, its an amazing song and a really fun one to play.

This is my first tab so im not too good with making the tabs look "pretty" but hell, its 
right notes

Here is the basic part of song, then it goes to a breakdown and they add some triplets, 
you
can figure that out on your own cause its really easy

e|-----------------------------------------------------|
B|-----------------------------------------------------|
G|-----------------------------------------------------|
D|---/7--7--7p5------------3h5p3---3--5~---------------|
A|---------------7--3--3h5-------5---------------------|
E|-----------------------------------------------------|

e|------------------------------------------------------------------------------------|
B|------------------------------------------------------------------------------------|
G|------------------------------------------------------------------------------------|
D|---------7--------7--------7----/12--10---------7-------7-------7-------------------|
A|---------5--------5--------5----/10---8---------5-------5-------5---3p0-------------|
E|--0--0----0--0-----0--0----0--------------0--0----0--0-----0--0----------5--3-------|

e|----------------------------------|------|----------------------------|
B|----------------------------------|------|----------------------------|
G|----------------------------------|--x2--|----------------------------|
D|------------5--5------------------|------|---/6-5-3-------------------|
A|--0--0x-----3--3x--0-0x-----------|------|---/6-5-3-------------------|
E|--0--0x------------0-0x-----/6~---|------|---/6-5-3-------------------|

| /  slide up
| \  slide down
| h  hammer-on
| p  pull-off
| ~  vibrato
| +  harmonic
| x  Mute note
            
Hard to play? Try these video lessons and learn fast. | Correct




comments powered by Disqus
↑ Back to top | Tablatures and chords are parodies/interpretations of the original songs. You may use it for private study, scholarship, research or language learning purposes only