» » »

Down, Three Suns And One Star Tabs (ver.1)

Artists:  A B C D E F G H I J K L M N O P Q R S T U V W X Y Z # 

Three Suns And One Star Tabs (ver.1)

Down Tabs
Rating:
0/5 (0 votes)
Three Suns And One Star lessons Tabs too difficult? Try these video lessons and learn fast
                                                DOWN -  Three Suns and one Star
                           -----------------------------------------

Tuning: C# Standart (1 1/2 step Down)
This was done in 1 hour

Intro is untabable for guitar

Part1 (the first hammer on/off part is wrong)
|-------------------------------------|-----------------------------|
|-------------------------------------|-----------------------------|
|-------------------------------------|-----------------------------|
|---------5---------------------------|----------5------------------|
|-----7-------7-----------------------|-7-7--5h7---7--7---5h7h5-----|
|-0-0---0---0---0-6-0-5-0-5h6h5-3h5h3-|-0---------------0-------6-5-|


Part2 (7x - 1x)
|---------|-----|
|---------|-----|
|---------|-----|
|-9-9-----|-10\-|
|-7-7-----|-8-\-|
|-x-x-000-|-x---|

Part3
|-----------------------------|
|-----------------------------|
|-----------------------------|
|-----------------------------|
|-2-2----0-0----4-4----3-3----|
|-0-0-00-1-1-11-5-5-55-4-4-44-|

Play part1 again
play part2 again
play part3 again
play part1 again (let the last 5 -F#- ring)

Breakdown Part1
|-------------|--------------|---------------|-----------------|
|-------------|--------------|---------------|-----------------|
|-------------|--------------|---------------|-----------------|
|-------------|--------------|---------------|-----------------|
|---------9-7-|---------7-5--|-----5---------|-------5---------|
|-0-5h7h8-----|-0-5h7h8------|-5h6---6h5h3h0-|-0-5h6---6h5h3h0-|

Breakdown Part2
|------------------------|-----------------|
|------------------------|-----------------|
|------------------------|-----------------|
|------------------------|-----------------|
|-5----------8-7-8-7-8-7-|-5----5----5---5-|
|-3-3333-333-6-5-6-5-6-5-|-3-3333-3333-333-|

then Breakdown part1 again then breakdown part2 and so on..

Breakdown Part3 
|-------------|--------------|----------------------------------|
|-------------|--------------|----------------------------------|
|-------------|--------------|----------------------------------|
|-------------|--------------|----------------------------------|
|---------9-7-|---------7-5--|---------9-7-9-(9h)10-9-7-7h9h7h5-|
|-0-5h7h8-----|-0-5h7h8------|-0-5h7h8--------------------------|

play Breakdown Part2 again
Play Part1 again
Play Part2 again
Play Part1 again

End
|----------|-----------------|
|----------|-----------------|
|----------|-----------------|
|-10-10----|--------------9/-|
|-8--8-----|-10-9-7-9-7-5-7/-|
|-x--x-000-|-----------------|
            
Submit corrections

comments powered by Disqus
↑ Back to top | Down Tabs for Three Suns And One Star. Lyrics for acoustic guitar and electric guitar. Tablatures and chords are parodies/interpretations of the original songs. You may use it for private study, scholarship, research or language learning purposes only