» » »

Lifer Tabs (ver.4)

Artists:  A B C D E F G H I J K L M N O P Q R S T U V W X Y Z # 

Lifer Tabs (ver.4)

Down
Rating:
0/5 (0 votes)

Hard to play? Try these video lessons and learn fast.
                (Intro)
Down

lifer

Dropped D tuning



D----------------------------------
A----------------------------------
D-0-0-12/--------------------------
  pm..

D----------------------------------
A---------------------------------- x3
D-0--0-0-14b-0-0-14p0-14p0-14-12---
    pm...    ...  

D-10-10-10-10-5-5-5-5-3------------
A-10-10-10-10-5-5-5-5-3------------
D-10-10-10-10-5-5-5-5-3------------
            
Hard to play? Try these video lessons and learn fast. | Correct




comments powered by Disqus
↑ Back to top | Tablatures and chords are parodies/interpretations of the original songs. You may use it for private study, scholarship, research or language learning purposes only