>
 >
Lifer 1

Lifer 1 Guitar Tabs

Down - Lifer 1 chords, tabs, tablatures, lyrics

Guitar lessons | Add/correct | Request | Top 50 tabs Artists:  A B C D E F G H I J K L M N O P Q R S T U V W X Y Z 0-9

Lifer 1 Guitar Tabs – Down

CD, Sheet music, Poster

Do you like Lifer 1? Share with your friends now
TabsTabs v2Tabs v3
                                "LIFER"
                                  by
                                 DOWN

   Intro                 FIG. 1
eb|---------|----------------------------------------------|
Bb|---------|----------------------------------------------|
Gb|---------|----------------------------------------------|
Db|---------|----------------------------------------------|
Gb|---------|--------9^full----9p7--9p7--9^p7--------------|
Db|00---12\-|-0---00--------00-----------------------------|
   pm            pm         pm 

           FIG. 1A                      FIG. 1B
eb|----------------------|-----------------------------------|
Bb|----------------------|-----------------10^(11)^10-8------|
Gb|----------------------|-----7-9/11\9----------------------|
Db|----5h7--7------------|-7h9-------------------------------|
Ab|5h7------5-7------7-5-|-----------------------------------|
Db|-----------5---00-5-3-|-----------------------------------|
                 pm
                         
                         FIG. 2
eb|------------------------------------------------------|
Bb|------------------------------------------------------|
Gb|------------------------------------------------------|
Db|-------------------------------------------5----------|
Ab|2--22--4--5--5/8--7------5p2-------5---5h7------------|
Db|0--00--2--3--3/6--5--3h5-------3h5--------------------|
      pm
                         FIG. 2A
eb|-------------------------------------------------------|
Bb|-------------------------------------------------------|
Gb|-------------------------------------------------------|
Db|-------------------------------------------------------|
Ab|-2--22--4--5--5/8--7-----------5---5-------------------|
Db|-0--00--2--3--3/6--5--5/12\5-----6---5-----------------|
       pm
                         FIG. 2B         
eb|-------------------------------------------------------|
Bb|-------------------------------------------------------|
Gb|-------------------------------------------------------|
Db|--------------------------5-7^8--7p5-7p5---------------|
Ab|2-22--4-5-5/8-7-------5h7------------------------------|
Db|0-00--2-3-3/6-5----------------------------------------|
     pm
                          
                         FIG. 3 
eb|---------------------------------------------------------|
Bb|---------------------------------------------------------|
Gb|---------------------------------------------------------|
Db|---9-----999----------9-----999---------9-----999--------|
Ab|---7-----777----------7-----777---------7-----777--------|
Db|00---000-----3/12--00---000------8\--00---000-----3/-----|

   pm   pm.         pm   pm.         pm   pm.
eb|-------------------------------------------------------|
Bb|-------------------------------------------------------|
Gb|-------------------------------------------------------|
Db|12/14-1414-14\12--12/14-14-14\12-14\12-----------------|
Ab|10/12-1212-12\10--10/12-12-12\10-12\10-----------------|
Db|-------------------------------------------------------|

                         
                         FIG. 4 
eb|---------------------------------------|
Bb|---------------------------------------|
Gb|---------------------------------------|
Db|--2--5----2--7-----2--8----------------|
Ab|--2--5----2--7-----2--8----------------|
Db|--0--3----0--5-----0--6----------------|
 
                         SOLO
eb|------------------------------------------------------------------|
Bb|-12-12-12--12-12-12--10-9-10--10-10-------------------------------|
Gb|------------------------------------11-11-9-9-9-9-11-11-9-9-9-9-9-|
Db|------------------------------------------------------------------|
Ab|------------------------------------------------------------------|
Db|------------------------------------------------------------------|

      
   1ST FILL
                         FIG. 5
eb|----------|--------------------------------------------|
Bb|----------|--------------------------------------------|
Gb|----------|--------------------------------------------|
Db|----------|--------------------------------------------|
Ab|----------|--------------------------------------------|
Db|--9\0-----|-0--00--2^3--00--2p0-2p0-2^3--0-0-----------|
                  pm       pm 

                        2ND FILL
eb|-------------------------------------------------------|
Bb|-------------------------------------------------------|
Gb|-------------------------------------------------------|
Db|-------------------------------------------------------|
Ab|--------------22-22-2-2------------------------------------|
Db|-0-00--2^3-0--00-00-0-0---------------------------|
      pm         pm pm



INTRO then FIG.1: (3X) *(on the third time, don't do the last part:"9^p7") 
FIG. 1A
FIG. 1: (3X)*
FIG. 1B
FIG. 1: (3X)*, FIG. 1A (REPEAT THIS 2X)

FIGS. 2, 2A, 2, 2B
FIG. 1 (3X)*, FIG. 1B 
FIG. 1 (3X)*, FIG. 1A (REPEAT THIS 2X_


FIGS. 2, 2A, 2, 2B
FIG. 3: (4X) 
FIG. 4: (16X) (LISTEN TO THE SONG FOR THE RHYTHM CHANGES)

FIGS. 2A, 2: (3X)
FIGS. 2A, 2B 
FIG. 5 (12X) (THE SOLO BEGINS AFTER 4TH)

1ST FILL
FIG. 5 (3X)
2ND FILL
FIG. 5 (4X)
           "dedicated to the victims of hurricane Katrina in NOLA "

pm me if you have questions or comments. AIM: Late Nite Ralph





Comments


Popular Down tabs & chords
Beneath The Tides Intro Tabs
Hail The Leaf Tabs
Jail 2 Tabs
Landing On The Mountains Of Meggido 1 Tabs
Lifer 2 Tabs
Lysergic Funeral Procession Tabs
Lysergik Funeral Procession 1 Tabs
On March The Saints Tabs
Swan Song Tabs
Temptation's Wings Tabs


Song lyrics



↑ Back to top | Tablatures and chords are parodies/interpretations of the original songs. You may use it for private study, scholarship, research or language learning purposes only
© 2014 AZChords.com Contact us | Privacy policy | DMCA | Add/correct tabs | Request tabs | Top 50 tabs