>
 >
Lifer

Lifer Guitar Tabs

Down - Lifer chords, tabs, tablatures, lyrics

Guitar lessons | Add/correct | Request | Top 50 tabs Artists:  A B C D E F G H I J K L M N O P Q R S T U V W X Y Z 0-9

Lifer Guitar Tabs – Down

CD, Sheet music, Poster

Do you like Lifer? Share with your friends now
TabsTabs v2Tabs v3

This is tuned quite low...couldn't find a decent tab for this so here's one 
that'll hopefully keep you on the right track.

The ^ symbol represents a small bend...it doesnt quite bring it up to the next 
note but its still used.

~ is vibrato

Rate please :)

intro

Db ---------|-------------------------------------||
Ab ---------|-------------------------------------||
E  ---------|-------------------------------------||
B  ---------|-------------------------------------||
F# ---------|-------------------------------------||
Db -0-0-12\-|-0--0-0-14^-0-0-14^p12-14^12-14^~p12-||
 pm ---          ---     ---'   

Db ---------------------------------------------------------------||
Ab ---------------------------------------------------------------||
E  ---------------------------------------------------------------||
B  -----------------------------------------12--12-12--7--------5-||
F# -----------------------------------10h12-12--12-12--7--7-7-7-5-||
Db -0--0-0-14^-0-0-14^p12-14^12-10h12-------10--10-10--5--5-5-5-3-||

pm     ---     ---                                        -----'    

Db ---------|-------------------------------------||
Ab ---------|-------------------------------------||
E  ---------|-------------------------------------||
B  ---------|-------------------------------------||
F# ---------|-------------------------------------||
Db -0-0-12\-|-0--0-0-14^-0-0-14^p12-14^12-14^~p12-||

 pm ---          ---     ---'   

during below part, guitar 1 plays same as before

Db -------------------------------------------------------------------------|
Ab -------------------------------------------------------------------------|
E  ---------------------------------------------------12--------14(15)-14-12|
B  --------------------------------------------12-------14-14-12------------|
F# -----------------------------------10h12/14----14------------------------|
Db -0--0-0-14^-0-0-14^p12-14^12-10h12---------------------------------------|

pm     ---     ---            

verse (same as intro)                                               


Chorus:

Db -------------------------------------------|
Ab -------------------------------------------|
E  -------------------------------------------|
B  -2------4-5-/8-7-------------------------5-|
F# -2--2-2-4-5-/8-7------5-----------5--5h7---|
Db -0--0-0-2-3-/6-5--5h7---7--7--5h7----------|

  pm   ---'

Db -----------------------------------|
Ab -----------------------------------|
E  -----------------------------------|
B  -2------4-5-/8-7-------------------|
F# -2--2-2-4-5-/8-7------5------------|
Db -0--0-0-2-3-/6-5--12\---6~~--5~~---| 

 pm    ---

the last two notes here could be power chords

Db -----------------------------------------|
Ab -----------------------------------------|
E  -----------------------------------------|
B  -2------4-5-/8-7-------5--7(8)-7-5-7-5---|
F# -2--2-2-4-5-/8-7---5h7-------------------|
Db -0--0-0-2-3-/6-5-------------------------|

pm     ---


INTRO
VERSE
CHORUS

break:

Db ------------------------------------------------------------------------|
Ab ------------------------------------------------------------------------|
E  ----9--------9--9--9---------9--------9--9--9---------9--------9--9--9--|
B  ----9--------9--9--9---------9--------9--9--9---------9--------9--9--9--|
F# ----7--------7--7--7---------7--------7--7--7---------7--------7--7--7--|
Db 0-0----0-0-0---------3^--0-0----0-0-0---------8\-0-0----0-0-0---------3^|

pm ---    -----             ---    -----             ---    -----
Db -----------------------------------------||
Ab -----------------------------------------||
E  12/14-14-14-12/14-14-14(15)-14-12-14-12\-||
B  12/14-14-14-12/14-14-14(15)-14-12-14-12\-||
F# 10/12-12-12-10/12-12-12(13)-12-10-12-10\-||
Db -----------------------------------------||

Db ----------------------||
Ab ----------------------||Notes played at different speed after 4 times
E  ----------------------||
B  ----------------------||
F# ----------------------||
Db -0--3~~-0--5~~-0-6^~~-||

Db ----------||
Ab ----------||
E  ----------||
B  2---------||
F# 2---------||
Db 0---/12\--||

CHORUS

OUTRO

1st guitar:

Db -------------------------------------||
Ab -------------------------------------||
E  -------------------------------------||
B  -------------------------------------||
F# -------------------------------------||
Db -0--0-0-14^-0-0-14^p12-14^12-14^~p12-||
 pm    ---     ---        

2nd guitar:

Db -------------------------------||
Ab -------------------------------||
E  -------------------------------||
B  -------------------------------||
F# -------------------------------||
Db 0--0-0-2^-0-0-2^~p0-2^p0-2^~p0-||

2nd guitar continues, 1st guitar:

Db ----------------------------------------------------------------------||
Ab -12-12-12-12-12-12-12-10-10-10-9-9-9-10-10-7-7-7-------7-7-7-7--------||
E  -9--9--9--9--9--9--9--9--9--9--9-9-9-9--9--9-9-9-9-9-9-9-9-9-9-9-9-9--||
B  ----------------------------------------------------------------------||
F# -7--7--7--7--7--7--7--7--7--7--7-7-7-7--7--7-7-7-7-7-7-7-7-7-7-7-7-7--||
Db ----------------------------------------------------------------------||

DO NOT GO BY THE ABOVE STRUMMING PATTERN.  didnt have enough room to fit it all in :(

Db -------------------------------||-------------------------|
Ab -------------------------------||-------------------------|
E  -------------------------------||-------------------------|
B  -------------------------------||-------------2-2--2-2--2-|
F# -------------------------------||-------------2-2--2-2--2-|
Db 0--0-0-2^-0-0-2^~p0-2^p0-2^~p0-||-0--0-0-2^-0-0-0--0-0--0-|

pm   ----    ---                        ---    -------------'

Db -------------------------------||
Ab -------------------------------||
E  -------------------------------||
B  -------------------------------||
F# -------------------------------||
Db 0--0-0-2^-0-0-2^~p0-2^p0-2^~p0-||

No open note at the end of the last time

Db ---|
Ab ---|
E  ---|
B  2--|
F# 2--|
Db 0--|

Comment if you see any problems and please rate!





Comments


Popular Down tabs & chords
The Path 2 Bass Tabs
Salamat Chords
Beneath The Tides Intro Tabs
Bury Me In Smoke Tabs
Landing On The Mountains Of Meggido 2 Tabs
Temptation's Wings Tabs
The Man That Follows Hell 1 Tabs
There's Something On My Side Tabs
Three Suns And One Star Tabs
Salamat Ukulele


Song lyrics



↑ Back to top | Tablatures and chords are parodies/interpretations of the original songs. You may use it for private study, scholarship, research or language learning purposes only
© 2014 AZChords.com Contact us | Privacy policy | DMCA | Add/correct tabs | Request tabs | Top 50 tabs