» » »

Down, Landing On The Mountains Of Meggido Tabs (ver.3)

Artists:  A B C D E F G H I J K L M N O P Q R S T U V W X Y Z # 

Landing On The Mountains Of Meggido Tabs (ver.3)

Down Tabs
Rating:
0/5 (0 votes)
Landing On The Mountains Of Meggido lessons Tabs too difficult? Try these video lessons and learn fast
                Tuned 1/2 step down

Main Riff:

|---2--5--7--5--2-2-2-22---|           |---2--5--4---4-----4-----4----|
|---3--6--8--6--3-3-3-33---|           |---3--6--5-----5-----5-----5--|
|---2--5--7--5--2-2-2-22---| X3  then  |---2--5--4-------4-----4------| X2
|---0--0--0--0--0-0-0-00---|           |---0--0--0--------------------|
|--------------------------|           |------------------------------|
|--------------------------|           |------------------------------|


Riff 2

|---1-0-1-0-1-0-1-3333333333--|
|---3-3-3-3-3-3-3-3333333333--|
|---2-2-2-2-2-2-2-2222222222--|
|---0-0-0-0-0-0-0-0000000000--|
|-----------------------------|
|-----------------------------|


Riff 3

|---------0---7------|           |--------5--3--3h5p3---------5--3--3h5p3----|
|-------6-------6----|           |--------5--3--------5-------5--3--------3--|
|-----7-----------0--| X4  then  |-----2-------------------2-----------------| X2 then
|---0----------------|           |-------------------------------------------|
|--------------------|           |---0-------------------0-------------------|
|--------------------|           |-------------------------------------------|

|--------------------------------|
|---------------0--1--0----------| 
|---------0---0---------0--------| X4(first time the riff is played)
|-------2---2-------------2------| X6(second time the riff is played)
|-----2---------------------2----|
|---0-------------------------0--|


Outro
I'm not sure if this is quite correct but I've yet to see a tab with this riff on it, so here it is, to the best of my knowledge:

|-------------|           |----------------------|
|---------5---|           |-------4-----3-----2--|
|-------4-----| X8 then   |-----4-----3-----2----|
|-------------|           |----------------------|
|-----2-------|           |---3-----2-----1------|
|---0---------|           |----------------------|

Song Order:

Main Riff  X2
Riff 2     X4
Main Riff  X2
Riff 2     X8
Riff 3     X1
Main Riff  X2
Riff 2     X4
Main Riff  X2
Riff 2     X8
Riff 3     X1
Outro      X8
            

comments powered by Disqus
↑ Back to top | Down Tabs for Landing On The Mountains Of Meggido. Lyrics for acoustic guitar and electric guitar. Tablatures and chords are parodies/interpretations of the original songs. You may use it for private study, scholarship, research or language learning purposes only